  0
SECTION
  2
HEADER
  9
$ACADVER
  1
AC1009
  9
$INSBASE
 10
0.0
 20
0.0
 30
0.0
  9
$EXTMIN
 10
2.7121507328488361
 20
-1.705365334815756
 30
-0.0000000100000001
  9
$EXTMAX
 10
7.9559928781938618
 20
6.2601000106702012
 30
0.0000000099999999
  9
$LIMMIN
 10
0.0
 20
0.0
  9
$LIMMAX
 10
12.0
 20
9.0
  9
$ORTHOMODE
 70
     1
  9
$REGENMODE
 70
     1
  9
$FILLMODE
 70
     1
  9
$QTEXTMODE
 70
     0
  9
$MIRRTEXT
 70
     1
  9
$DRAGMODE
 70
     2
  9
$LTSCALE
 40
0.5
  9
$OSMODE
 70
     5
  9
$ATTMODE
 70
     1
  9
$TEXTSIZE
 40
0.156
  9
$TRACEWID
 40
0.05
  9
$TEXTSTYLE
  7
ROMANS
  9
$CLAYER
  8
BT-1P-BODY
  9
$CELTYPE
  6
BYLAYER
  9
$CECOLOR
 62
   256
  9
$DIMSCALE
 40
0.5
  9
$DIMASZ
 40
0.18
  9
$DIMEXO
 40
0.0625
  9
$DIMDLI
 40
0.38
  9
$DIMRND
 40
0.0
  9
$DIMDLE
 40
0.0
  9
$DIMEXE
 40
0.18
  9
$DIMTP
 40
0.0
  9
$DIMTM
 40
0.0
  9
$DIMTXT
 40
0.156
  9
$DIMCEN
 40
0.09
  9
$DIMTSZ
 40
0.0
  9
$DIMTOL
 70
     0
  9
$DIMLIM
 70
     0
  9
$DIMTIH
 70
     1
  9
$DIMTOH
 70
     1
  9
$DIMSE1
 70
     0
  9
$DIMSE2
 70
     0
  9
$DIMTAD
 70
     0
  9
$DIMZIN
 70
     4
  9
$DIMBLK
  1

  9
$DIMASO
 70
     1
  9
$DIMSHO
 70
     1
  9
$DIMPOST
  1

  9
$DIMAPOST
  1

  9
$DIMALT
 70
     0
  9
$DIMALTD
 70
     2
  9
$DIMALTF
 40
25.399999999999999
  9
$DIMLFAC
 40
1.0
  9
$DIMTOFL
 70
     0
  9
$DIMTVP
 40
0.0
  9
$DIMTIX
 70
     0
  9
$DIMSOXD
 70
     0
  9
$DIMSAH
 70
     0
  9
$DIMBLK1
  1

  9
$DIMBLK2
  1

  9
$DIMSTYLE
  2
STANDARD
  9
$DIMCLRD
 70
   256
  9
$DIMCLRE
 70
   256
  9
$DIMCLRT
 70
   256
  9
$DIMTFAC
 40
1.0
  9
$DIMGAP
 40
0.09
  9
$LUNITS
 70
     2
  9
$LUPREC
 70
     4
  9
$SKETCHINC
 40
0.1
  9
$FILLETRAD
 40
0.0
  9
$AUNITS
 70
     0
  9
$AUPREC
 70
     2
  9
$MENU
  1
acad
  9
$ELEVATION
 40
0.0
  9
$PELEVATION
 40
0.0
  9
$THICKNESS
 40
0.0
  9
$LIMCHECK
 70
     0
  9
$BLIPMODE
 70
     0
  9
$CHAMFERA
 40
0.0
  9
$CHAMFERB
 40
0.0
  9
$SKPOLY
 70
     0
  9
$TDCREATE
 40
2452956.4426408671
  9
$TDUPDATE
 40
2453193.5593947102
  9
$TDINDWG
 40
0.0494885648
  9
$TDUSRTIMER
 40
0.0494880324
  9
$USRTIMER
 70
     1
  9
$ANGBASE
 50
0.0
  9
$ANGDIR
 70
     0
  9
$PDMODE
 70
     0
  9
$PDSIZE
 40
0.0
  9
$PLINEWID
 40
0.0
  9
$COORDS
 70
     0
  9
$SPLFRAME
 70
     0
  9
$SPLINETYPE
 70
     6
  9
$SPLINESEGS
 70
     8
  9
$ATTDIA
 70
     0
  9
$ATTREQ
 70
     1
  9
$HANDLING
 70
 12289
  9
$HANDSEED
  5
108DD1
  9
$SURFTAB1
 70
    15
  9
$SURFTAB2
 70
    15
  9
$SURFTYPE
 70
     6
  9
$SURFU
 70
     6
  9
$SURFV
 70
     6
  9
$UCSNAME
  2
TOP
  9
$UCSORG
 10
0.0
 20
0.0
 30
0.0
  9
$UCSXDIR
 10
1.0
 20
0.0
 30
0.0
  9
$UCSYDIR
 10
0.0
 20
1.0
 30
0.0
  9
$PUCSNAME
  2

  9
$PUCSORG
 10
0.0
 20
0.0
 30
0.0
  9
$PUCSXDIR
 10
1.0
 20
0.0
 30
0.0
  9
$PUCSYDIR
 10
0.0
 20
1.0
 30
0.0
  9
$USERI1
 70
     0
  9
$USERI2
 70
     0
  9
$USERI3
 70
     0
  9
$USERI4
 70
     0
  9
$USERI5
 70
     0
  9
$USERR1
 40
0.0
  9
$USERR2
 40
0.0
  9
$USERR3
 40
0.0
  9
$USERR4
 40
0.0
  9
$USERR5
 40
0.0
  9
$WORLDVIEW
 70
     1
  9
$SHADEDGE
 70
     3
  9
$SHADEDIF
 70
    70
  9
$TILEMODE
 70
     1
  9
$MAXACTVP
 70
    15
  9
$PLIMCHECK
 70
     0
  9
$PEXTMIN
 10
1.0000000000000000E+020
 20
1.0000000000000000E+020
 30
1.0000000000000000E+020
  9
$PEXTMAX
 10
-1.0000000000000000E+020
 20
-1.0000000000000000E+020
 30
-1.0000000000000000E+020
  9
$PLIMMIN
 10
0.0
 20
0.0
  9
$PLIMMAX
 10
12.0
 20
9.0
  9
$UNITMODE
 70
     0
  9
$VISRETAIN
 70
     0
  9
$PLINEGEN
 70
     0
  9
$PSLTSCALE
 70
     1
  0
ENDSEC
  0
SECTION
  2
TABLES
  0
TABLE
  2
VPORT
 70
     3
  0
VPORT
  2
*ACTIVE
 70
     0
 10
0.0
 20
0.0
 11
1.0
 21
1.0
 12
3.19724574664325
 22
4.5241444069233774
 13
0.0
 23
0.0
 14
1.0
 24
1.0
 15
0.0
 25
0.0
 16
0.0
 26
0.0
 36
1.0
 17
2.1367081379429198
 27
-2.2466461518772092
 37
1.552034160738883
 40
8.0433705385866592
 41
1.7560975609756091
 42
50.0
 43
0.0
 44
0.0
 50
0.0
 51
0.0
 71
     0
 72
   100
 73
     1
 74
     0
 75
     0
 76
     0
 77
     0
 78
     0
  0
ENDTAB
  0
TABLE
  2
LTYPE
 70
    21
  0
LTYPE
  2
CONTINUOUS
 70
     0
  3
Solid line
 72
    65
 73
     0
 40
0.0
  0
LTYPE
  2
HIDDEN
 70
     0
  3
__ __ __ __ __ __ __ __ __ __ __ __ __ __ __ __
 72
    65
 73
     2
 40
0.375
 49
0.25
 49
-0.125
  0
LTYPE
  2
HIDDEN2
 70
     0
  3
_ _ _ _ _ _ _ _ _ _ _ _ _ _ _ _ _ _ _ _ _ _ _ _
 72
    65
 73
     2
 40
0.1875
 49
0.125
 49
-0.0625
  0
LTYPE
  2
CENTER
 70
     0
  3
____ _ ____ _ ____ _ ____ _ ____ _ ____ _ ____ 
 72
    65
 73
     4
 40
2.0
 49
1.25
 49
-0.25
 49
0.25
 49
-0.25
  0
LTYPE
  2
CENTER2
 70
     0
  3
___ _ ___ _ ___ _ ___ _ ___ _ ___ _ ___ _ ___ _
 72
    65
 73
     4
 40
1.125
 49
0.75
 49
-0.125
 49
0.125
 49
-0.125
  0
LTYPE
  2
CENTERX2
 70
     0
  3
________  __  ________  __  ________  __  _____
 72
    65
 73
     4
 40
4.0
 49
2.5
 49
-0.5
 49
0.5
 49
-0.5
  0
LTYPE
  2
DASHDOT
 70
     0
  3
__ . __ . __ . __ . __ . __ . __ . __ . __ . __
 72
    65
 73
     4
 40
1.0
 49
0.5
 49
-0.25
 49
0.0
 49
-0.25
  0
LTYPE
  2
DASHDOT2
 70
     0
  3
_._._._._._._._._._._._._._._._._._._._._._._._
 72
    65
 73
     4
 40
0.5
 49
0.25
 49
-0.125
 49
0.0
 49
-0.125
  0
LTYPE
  2
DASHDOTX2
 70
     0
  3
____  .  ____  .  ____  .  ____  .  ____  .  __
 72
    65
 73
     4
 40
2.0
 49
1.0
 49
-0.5
 49
0.0
 49
-0.5
  0
LTYPE
  2
DASHED
 70
     0
  3
__ __ __ __ __ __ __ __ __ __ __ __ __ __ __ __
 72
    65
 73
     2
 40
0.75
 49
0.5
 49
-0.25
  0
LTYPE
  2
DASHED2
 70
     0
  3
_ _ _ _ _ _ _ _ _ _ _ _ _ _ _ _ _ _ _ _ _ _ _ _
 72
    65
 73
     2
 40
0.375
 49
0.25
 49
-0.125
  0
LTYPE
  2
DASHEDX2
 70
     0
  3
____  ____  ____  ____  ____  ____  ____  ____ 
 72
    65
 73
     2
 40
1.5
 49
1.0
 49
-0.5
  0
LTYPE
  2
DOT
 70
     0
  3
. . . . . . . . . . . . . . . . . . . . . . . .
 72
    65
 73
     2
 40
0.25
 49
0.0
 49
-0.25
  0
LTYPE
  2
DOT2
 70
     0
  3
...............................................
 72
    65
 73
     2
 40
0.125
 49
0.0
 49
-0.125
  0
LTYPE
  2
DOTX2
 70
     0
  3
.  .  .  .  .  .  .  .  .  .  .  .  .  .  .  . 
 72
    65
 73
     2
 40
0.5
 49
0.0
 49
-0.5
  0
LTYPE
  2
HIDDENX2
 70
     0
  3
____ ____ ____ ____ ____ ____ ____ ____ ____ __
 72
    65
 73
     2
 40
0.75
 49
0.5
 49
-0.25
  0
LTYPE
  2
PHANTOM
 70
     0
  3
______  __  __  ______  __  __  ______  __  __ 
 72
    65
 73
     6
 40
2.5
 49
1.25
 49
-0.25
 49
0.25
 49
-0.25
 49
0.25
 49
-0.25
  0
LTYPE
  2
PHANTOM2
 70
     0
  3
___ _ _ ___ _ _ ___ _ _ ___ _ _ ___ _ _ ___ _ _
 72
    65
 73
     6
 40
1.25
 49
0.625
 49
-0.125
 49
0.125
 49
-0.125
 49
0.125
 49
-0.125
  0
LTYPE
  2
PHANTOMX2
 70
     0
  3
____________    ____    ____    ____________   
 72
    65
 73
     6
 40
5.0
 49
2.5
 49
-0.5
 49
0.5
 49
-0.5
 49
0.5
 49
-0.5
  0
LTYPE
  2
ASULTYPE
 70
     0
  3
Solid line
 72
    65
 73
     2
 40
3.0
 49
2.5
 49
0.5
  0
LTYPE
  2
ASVLTYPE
 70
     0
  3
__ __ __ __ __ __ __ __ __ __ __ __ __ __ __ __ __ __ __ __ __
 72
    65
 73
     2
 40
0.75
 49
0.5
 49
-0.25
  0
ENDTAB
  0
TABLE
  2
LAYER
 70
    13
  0
LAYER
  2
0
 70
     0
 62
     7
  6
CONTINUOUS
  0
LAYER
  2
PART
 70
     0
 62
     3
  6
CONTINUOUS
  0
LAYER
  2
C
 70
     0
 62
     2
  6
CENTER
  0
LAYER
  2
PARTH
 70
     0
 62
     4
  6
HIDDEN
  0
LAYER
  2
TEXT
 70
     0
 62
     7
  6
CONTINUOUS
  0
LAYER
  2
CENTER
 70
     0
 62
     2
  6
CENTER
  0
LAYER
  2
CI
 70
     0
 62
     8
  6
CONTINUOUS
  0
LAYER
  2
HID
 70
     0
 62
     4
  6
HIDDEN
  0
LAYER
  2
BT-1P-BODY
 70
     0
 62
   253
  6
CONTINUOUS
  0
LAYER
  2
B-1P-LINK
 70
     0
 62
    63
  6
CONTINUOUS
  0
LAYER
  2
CLEVIS
 70
     0
 62
    30
  6
CONTINUOUS
  0
LAYER
  2
B-1P-ILINK
 70
     0
 62
   191
  6
CONTINUOUS
  0
LAYER
  2
BT-1P-J-1
 70
     0
 62
   254
  6
CONTINUOUS
  0
ENDTAB
  0
TABLE
  2
STYLE
 70
    10
  0
STYLE
  2
STANDARD
 70
     0
 40
0.0
 41
0.8
 50
0.0
 71
     0
 42
0.2067340150288407
  3
SIMPLEX.SHX
  4

  0
STYLE
  2
ASHADE
 70
     0
 40
0.2
 41
1.0
 50
0.0
 71
     0
 42
0.2
  3
simplex
  4

  0
STYLE
  2
ROMANS
 70
     0
 40
0.0
 41
1.0
 50
0.0
 71
     0
 42
0.156
  3
romans.shx
  4

  0
STYLE
  2
ITALICC
 70
     0
 40
0.0
 41
1.0
 50
0.0
 71
     0
 42
0.156
  3
italicc
  4

  0
STYLE
  2
ROMAND
 70
     0
 40
0.0
 41
1.0
 50
0.0
 71
     0
 42
0.156
  3
romand
  4

  0
STYLE
  2
ITALICT
 70
     0
 40
0.0
 41
1.0
 50
0.0
 71
     0
 42
0.156
  3
italict
  4

  0
STYLE
  2
1
 70
     0
 40
0.0
 41
1.0
 50
0.0
 71
     0
 42
0.156
  3
ROMANS
  4

  0
STYLE
  2
2
 70
     0
 40
0.0
 41
1.0
 50
0.0
 71
     0
 42
0.156
  3
ROMAND
  4

  0
STYLE
  2
3
 70
     0
 40
0.0
 41
1.0
 50
0.0
 71
     0
 42
0.156
  3
ITALICC
  4

  0
STYLE
  2
4
 70
     0
 40
0.0
 41
1.0
 50
0.0
 71
     0
 42
0.156
  3
ITALICT
  4

  0
ENDTAB
  0
TABLE
  2
VIEW
 70
     1
  0
VIEW
  2
LL
 70
     0
 40
9.8243439384828406
 10
1.4685819233133679
 20
0.0606082936169221
 41
11.60077376152519
 11
0.6123724356957946
 21
-0.6123724356957946
 31
0.5
 12
2.1367081379429198
 22
-2.2466461518772092
 32
1.552034160738883
 42
50.0
 43
-5.8312182741116763
 44
-5.8312182741116763
 50
0.0
 71
     0
  0
ENDTAB
  0
TABLE
  2
UCS
 70
     6
  0
UCS
  2
FRONT
 70
     0
 10
0.0
 20
0.0
 30
0.0
 11
1.0
 21
0.0
 31
0.0
 12
0.0
 22
0.0
 32
1.0
  0
UCS
  2
RSIDE
 70
     0
 10
0.0
 20
0.0
 30
0.0
 11
0.0
 21
1.0
 31
0.0
 12
0.0
 22
0.0
 32
1.0
  0
UCS
  2
LSIDE
 70
     0
 10
0.0
 20
0.0
 30
0.0
 11
0.0
 21
-1.0
 31
0.0
 12
0.0
 22
0.0
 32
1.0
  0
UCS
  2
BOTTOM
 70
     0
 10
0.0
 20
0.0
 30
0.0
 11
1.0
 21
0.0
 31
0.0
 12
0.0
 22
-1.0
 32
0.0
  0
UCS
  2
TOP
 70
     0
 10
0.0
 20
0.0
 30
0.0
 11
1.0
 21
0.0
 31
0.0
 12
0.0
 22
1.0
 32
0.0
  0
UCS
  2
BORDER
 70
     0
 10
0.0
 20
0.0
 30
0.0
 11
0.7071067811865476
 21
0.7071067811865476
 31
0.0
 12
-0.3535533905932738
 22
0.3535533905932738
 32
0.8660254037844385
  0
ENDTAB
  0
TABLE
  2
APPID
 70
     5
  0
APPID
  2
ACAD
 70
     0
  0
APPID
  2
AD_DRAW
 70
     0
  0
APPID
  2
DESIGNERASSEMBLIES
 70
     0
  0
APPID
  2
MCAD_NO_VIS
 70
     0
  0
APPID
  2
ASURF_PCURVE_APPNAME
 70
     0
  0
ENDTAB
  0
TABLE
  2
DIMSTYLE
 70
     3
  0
DIMSTYLE
  2
STANDARD
 70
     0
  3

  4

  5

  6

  7

 40
0.5
 41
0.18
 42
0.0625
 43
0.38
 44
0.18
 45
0.0
 46
0.0
 47
0.0
 48
0.0
140
0.156
141
0.09
142
0.0
143
25.399999999999999
144
1.0
145
0.0
146
1.0
147
0.09
 71
     0
 72
     0
 73
     1
 74
     1
 75
     0
 76
     0
 77
     0
 78
     4
170
     0
171
     2
172
     0
173
     0
174
     0
175
     0
176
   256
177
   256
178
   256
  0
DIMSTYLE
  2
STANDARD$0
 70
     0
  3

  4

  5

  6

  7

 40
0.5
 41
0.18
 42
0.063
 43
0.38
 44
0.18
 45
0.0
 46
0.0
 47
0.0
 48
0.0
140
0.156
141
0.09
142
0.0
143
25.399999999999999
144
1.0
145
0.0
146
1.0
147
0.09
 71
     0
 72
     0
 73
     1
 74
     1
 75
     0
 76
     0
 77
     0
 78
     4
170
     0
171
     2
172
     0
173
     0
174
     0
175
     0
176
   256
177
   256
178
   256
  0
DIMSTYLE
  2
STANDARD$6
 70
     0
  3

  4

  5

  6

  7

 40
0.5
 41
0.18
 42
0.063
 43
0.38
 44
0.18
 45
0.0
 46
0.0
 47
0.0
 48
0.0
140
0.156
141
0.09
142
0.0
143
25.399999999999999
144
1.0
145
0.0
146
1.0
147
0.09
 71
     0
 72
     0
 73
     1
 74
     1
 75
     0
 76
     0
 77
     0
 78
     4
170
     0
171
     2
172
     0
173
     0
174
     0
175
     0
176
     0
177
   256
178
   256
  0
ENDTAB
  0
ENDSEC
  0
SECTION
  2
BLOCKS
  0
BLOCK
  8
0
  2
$MODEL_SPACE
 70
     0
 10
0.0
 20
0.0
 30
0.0
  3
$MODEL_SPACE
  1

  0
ENDBLK
  5
1069DE
  8
0
  0
BLOCK
 67
     1
  8
0
  2
$PAPER_SPACE
 70
     0
 10
0.0
 20
0.0
 30
0.0
  3
$PAPER_SPACE
  1

  0
ENDBLK
  5
1069DC
 67
     1
  8
0
  0
BLOCK
  8
0
  2
*U0
 70
     1
 10
0.0
 20
0.0
 30
0.0
  3
*U0
  1

  0
ENDBLK
  5
106A2B
  8
0
  0
BLOCK
  8
0
  2
CENT-MRK
 70
     0
 10
0.0
 20
0.0
 30
0.0
  3
CENT-MRK
  1

  0
LINE
  5
107C0C
  8
C
 10
-0.748875544706806
 20
-0.9166015283516699
 30
0.0
 11
-0.748875544706806
 21
0.0833984716483301
 31
0.0
  0
LINE
  5
107C0D
  8
C
 10
-1.248875544706805
 20
-0.41660152835167
 30
0.0
 11
-0.2488755447068058
 21
-0.41660152835167
 31
0.0
  0
ENDBLK
  5
107C0F
  8
0
  0
BLOCK
  8
0
  2
1_OPEN
 70
     0
 10
0.0
 20
0.0
 30
0.0
  3
1_OPEN
  1

  0
LINE
  5
107C24
  8
BT-1P-J-1
 10
2.5362500099896428
 20
-1.1188306820934879
 30
0.0
 11
2.5362500099896428
 21
-1.7438306820934879
 31
0.0
  0
LINE
  5
107C25
  8
BT-1P-J-1
 10
2.5362500099896428
 20
-1.1188306820934879
 30
0.0
 11
3.2862500099896428
 21
-1.1188306820934879
 31
0.0
  0
CIRCLE
  5
107C26
  8
BT-1P-J-1
 10
2.7242500099896421
 20
-1.555830682093488
 30
0.0
 40
0.0935
  0
CIRCLE
  5
107C27
  8
BT-1P-J-1
 10
3.0982500099896408
 20
-1.555830682093488
 30
0.0
 40
0.0935
  0
LINE
  5
107C28
  8
BT-1P-J-1
 10
3.2862500099896428
 20
-1.1188306820934879
 30
0.0
 11
3.2862500099896428
 21
-1.7438306820934879
 31
0.0
  0
LINE
  5
107C29
  8
BT-1P-J-1
 10
2.5362500099896428
 20
-1.7438306820934879
 30
0.0
 11
3.2862500099896428
 21
-1.7438306820934879
 31
0.0
  0
ENDBLK
  5
107C2B
  8
0
  0
BLOCK
  8
0
  2
1_CLOSED
 70
     0
 10
0.0
 20
0.0
 30
0.0
  3
1_CLOSED
  1

  0
LINE
  5
107C2D
  8
BT-1P-J-1
  6
HIDDEN
 10
1.853977965098057
 20
-1.081470414130469
 30
0.0
 11
1.853977965098057
 21
-1.706470414130469
 31
0.0
  0
LINE
  5
107C2E
  8
BT-1P-J-1
  6
HIDDEN
 10
1.103977965098057
 20
-1.081470414130469
 30
0.0
 11
1.853977965098057
 21
-1.081470414130469
 31
0.0
  0
LINE
  5
107C2F
  8
BT-1P-J-1
  6
HIDDEN
 10
1.103977965098057
 20
-1.081470414130469
 30
0.0
 11
1.103977965098057
 21
-1.706470414130469
 31
0.0
  0
LINE
  5
107C30
  8
BT-1P-J-1
  6
HIDDEN
 10
1.103977965098057
 20
-1.706470414130469
 30
0.0
 11
1.853977965098057
 21
-1.706470414130469
 31
0.0
  0
LINE
  5
107C31
  8
BT-1P-J-1
  6
HIDDEN
 10
0.2798409679680223
 20
-1.081470414130469
 30
0.0
 11
0.2798409679680223
 21
-1.706470414130469
 31
0.0
  0
LINE
  5
107C32
  8
BT-1P-J-1
  6
HIDDEN
 10
0.2798409679680223
 20
-1.081470414130469
 30
0.0
 11
-0.4701590320319778
 21
-1.081470414130469
 31
0.0
  0
LINE
  5
107C33
  8
BT-1P-J-1
  6
HIDDEN
 10
-0.4701590320319778
 20
-1.081470414130469
 30
0.0
 11
-0.4701590320319778
 21
-1.706470414130469
 31
0.0
  0
LINE
  5
107C34
  8
BT-1P-J-1
  6
HIDDEN
 10
0.2798409679680223
 20
-1.706470414130469
 30
0.0
 11
-0.4701590320319778
 21
-1.706470414130469
 31
0.0
  0
ENDBLK
  5
107C36
  8
0
  0
ENDSEC
  0
SECTION
  2
ENTITIES
  0
POLYLINE
  8
CLEVIS
  5
108BEF
  66
     1
 10
0.000000
 20
0.000000
 30
0.000000
  70
     8
  0
VERTEX
  8
CLEVIS
  5
108BF0
 10
4.27473
 20
4.09478
 30
-1.00000e-016
  70
    32
  0
VERTEX
  8
CLEVIS
  5
108BF1
 10
4.27430
 20
4.09477
 30
-1.00000e-016
  70
    32
  0
VERTEX
  8
CLEVIS
  5
108BF2
 10
4.27387
 20
4.09477
 30
-1.00000e-016
  70
    32
  0
VERTEX
  8
CLEVIS
  5
108BF3
 10
4.27343
 20
4.09476
 30
-1.00000e-016
  70
    32
  0
VERTEX
  8
CLEVIS
  5
108BF4
 10
4.27300
 20
4.09475
 30
-1.00000e-016
  70
    32
  0
VERTEX
  8
CLEVIS
  5
108BF5
 10
4.27257
 20
4.09474
 30
-1.00000e-016
  70
    32
  0
VERTEX
  8
CLEVIS
  5
108BF6
 10
4.27215
 20
4.09473
 30
-1.00000e-016
  70
    32
  0
VERTEX
  8
CLEVIS
  5
108BF7
 10
4.27172
 20
4.09472
 30
-1.00000e-016
  70
    32
  0
VERTEX
  8
CLEVIS
  5
108BF8
 10
4.27129
 20
4.09471
 30
-1.00000e-016
  70
    32
  0
VERTEX
  8
CLEVIS
  5
108BF9
 10
4.27087
 20
4.09469
 30
-1.00000e-016
  70
    32
  0
VERTEX
  8
CLEVIS
  5
108BFA
 10
4.27045
 20
4.09468
 30
-1.00000e-016
  70
    32
  0
VERTEX
  8
CLEVIS
  5
108BFB
 10
4.27002
 20
4.09466
 30
-1.00000e-016
  70
    32
  0
VERTEX
  8
CLEVIS
  5
108BFC
 10
4.26960
 20
4.09465
 30
-1.00000e-016
  70
    32
  0
VERTEX
  8
CLEVIS
  5
108BFD
 10
4.26918
 20
4.09463
 30
-1.00000e-016
  70
    32
  0
VERTEX
  8
CLEVIS
  5
108BFE
 10
4.26876
 20
4.09461
 30
-1.00000e-016
  70
    32
  0
VERTEX
  8
CLEVIS
  5
108BFF
 10
4.26834
 20
4.09459
 30
-1.00000e-016
  70
    32
  0
VERTEX
  8
CLEVIS
  5
108C00
 10
4.26791
 20
4.09457
 30
-1.00000e-016
  70
    32
  0
VERTEX
  8
CLEVIS
  5
108C01
 10
4.26749
 20
4.09455
 30
-1.00000e-016
  70
    32
  0
VERTEX
  8
CLEVIS
  5
108C02
 10
4.26706
 20
4.09453
 30
-1.00000e-016
  70
    32
  0
VERTEX
  8
CLEVIS
  5
108C03
 10
4.26663
 20
4.09451
 30
-1.00000e-016
  70
    32
  0
VERTEX
  8
CLEVIS
  5
108C04
 10
4.26619
 20
4.09448
 30
-1.00000e-016
  70
    32
  0
VERTEX
  8
CLEVIS
  5
108C05
 10
4.26576
 20
4.09446
 30
-1.00000e-016
  70
    32
  0
VERTEX
  8
CLEVIS
  5
108C06
 10
4.26532
 20
4.09443
 30
-1.00000e-016
  70
    32
  0
VERTEX
  8
CLEVIS
  5
108C07
 10
4.26488
 20
4.09440
 30
-1.00000e-016
  70
    32
  0
VERTEX
  8
CLEVIS
  5
108C08
 10
4.26444
 20
4.09437
 30
-1.00000e-016
  70
    32
  0
VERTEX
  8
CLEVIS
  5
108C09
 10
4.26400
 20
4.09434
 30
-1.00000e-016
  70
    32
  0
VERTEX
  8
CLEVIS
  5
108C0A
 10
4.26356
 20
4.09431
 30
-1.00000e-016
  70
    32
  0
VERTEX
  8
CLEVIS
  5
108C0B
 10
4.26312
 20
4.09428
 30
-1.00000e-016
  70
    32
  0
VERTEX
  8
CLEVIS
  5
108C0C
 10
4.26267
 20
4.09425
 30
-1.00000e-016
  70
    32
  0
VERTEX
  8
CLEVIS
  5
108C0D
 10
4.26223
 20
4.09421
 30
-1.00000e-016
  70
    32
  0
VERTEX
  8
CLEVIS
  5
108C0E
 10
4.26178
 20
4.09418
 30
-1.00000e-016
  70
    32
  0
VERTEX
  8
CLEVIS
  5
108C0F
 10
4.26133
 20
4.09414
 30
-1.00000e-016
  70
    32
  0
VERTEX
  8
CLEVIS
  5
108C10
 10
4.26088
 20
4.09410
 30
-1.00000e-016
  70
    32
  0
VERTEX
  8
CLEVIS
  5
108C11
 10
4.26043
 20
4.09407
 30
-1.00000e-016
  70
    32
  0
VERTEX
  8
CLEVIS
  5
108C12
 10
4.25998
 20
4.09403
 30
-1.00000e-016
  70
    32
  0
VERTEX
  8
CLEVIS
  5
108C13
 10
4.25953
 20
4.09399
 30
-1.00000e-016
  70
    32
  0
VERTEX
  8
CLEVIS
  5
108C14
 10
4.25907
 20
4.09395
 30
-1.00000e-016
  70
    32
  0
VERTEX
  8
CLEVIS
  5
108C15
 10
4.25862
 20
4.09391
 30
-1.00000e-016
  70
    32
  0
VERTEX
  8
CLEVIS
  5
108C16
 10
4.25816
 20
4.09387
 30
-1.00000e-016
  70
    32
  0
VERTEX
  8
CLEVIS
  5
108C17
 10
4.25771
 20
4.09382
 30
-1.00000e-016
  70
    32
  0
VERTEX
  8
CLEVIS
  5
108C18
 10
4.25725
 20
4.09378
 30
-1.00000e-016
  70
    32
  0
VERTEX
  8
CLEVIS
  5
108C19
 10
4.25680
 20
4.09374
 30
-1.00000e-016
  70
    32
  0
VERTEX
  8
CLEVIS
  5
108C1A
 10
4.25634
 20
4.09369
 30
-1.00000e-016
  70
    32
  0
VERTEX
  8
CLEVIS
  5
108C1B
 10
4.25588
 20
4.09365
 30
-1.00000e-016
  70
    32
  0
VERTEX
  8
CLEVIS
  5
108C1C
 10
4.25543
 20
4.09360
 30
-1.00000e-016
  70
    32
  0
VERTEX
  8
CLEVIS
  5
108C1D
 10
4.25497
 20
4.09355
 30
-1.00000e-016
  70
    32
  0
VERTEX
  8
CLEVIS
  5
108C1E
 10
4.25451
 20
4.09351
 30
-1.00000e-016
  70
    32
  0
VERTEX
  8
CLEVIS
  5
108C1F
 10
4.25405
 20
4.09346
 30
-1.00000e-016
  70
    32
  0
VERTEX
  8
CLEVIS
  5
108C20
 10
4.25359
 20
4.09341
 30
-1.00000e-016
  70
    32
  0
VERTEX
  8
CLEVIS
  5
108C21
 10
4.25314
 20
4.09336
 30
-1.00000e-016
  70
    32
  0
VERTEX
  8
CLEVIS
  5
108C22
 10
4.25268
 20
4.09331
 30
-1.00000e-016
  70
    32
  0
VERTEX
  8
CLEVIS
  5
108C23
 10
4.25222
 20
4.09326
 30
-1.00000e-016
  70
    32
  0
VERTEX
  8
CLEVIS
  5
108C24
 10
4.25176
 20
4.09320
 30
-1.00000e-016
  70
    32
  0
VERTEX
  8
CLEVIS
  5
108C25
 10
4.25130
 20
4.09315
 30
-1.00000e-016
  70
    32
  0
VERTEX
  8
CLEVIS
  5
108C26
 10
4.25085
 20
4.09310
 30
-1.00000e-016
  70
    32
  0
VERTEX
  8
CLEVIS
  5
108C27
 10
4.25039
 20
4.09305
 30
-1.00000e-016
  70
    32
  0
VERTEX
  8
CLEVIS
  5
108C28
 10
4.24993
 20
4.09299
 30
-1.00000e-016
  70
    32
  0
VERTEX
  8
CLEVIS
  5
108C29
 10
4.24948
 20
4.09294
 30
-1.00000e-016
  70
    32
  0
VERTEX
  8
CLEVIS
  5
108C2A
 10
4.24902
 20
4.09288
 30
-1.00000e-016
  70
    32
  0
VERTEX
  8
CLEVIS
  5
108C2B
 10
4.24856
 20
4.09283
 30
-1.00000e-016
  70
    32
  0
VERTEX
  8
CLEVIS
  5
108C2C
 10
4.24811
 20
4.09277
 30
-1.00000e-016
  70
    32
  0
VERTEX
  8
CLEVIS
  5
108C2D
 10
4.24765
 20
4.09272
 30
-1.00000e-016
  70
    32
  0
VERTEX
  8
CLEVIS
  5
108C2E
 10
4.24720
 20
4.09266
 30
-1.00000e-016
  70
    32
  0
VERTEX
  8
CLEVIS
  5
108C2F
 10
4.24675
 20
4.09260
 30
-1.00000e-016
  70
    32
  0
VERTEX
  8
CLEVIS
  5
108C30
 10
4.24630
 20
4.09254
 30
-1.00000e-016
  70
    32
  0
VERTEX
  8
CLEVIS
  5
108C31
 10
4.24585
 20
4.09249
 30
-1.00000e-016
  70
    32
  0
VERTEX
  8
CLEVIS
  5
108C32
 10
4.24540
 20
4.09243
 30
-1.00000e-016
  70
    32
  0
VERTEX
  8
CLEVIS
  5
108C33
 10
4.24495
 20
4.09237
 30
-1.00000e-016
  70
    32
  0
VERTEX
  8
CLEVIS
  5
108C34
 10
4.24450
 20
4.09231
 30
-1.00000e-016
  70
    32
  0
VERTEX
  8
CLEVIS
  5
108C35
 10
4.24405
 20
4.09225
 30
-1.00000e-016
  70
    32
  0
VERTEX
  8
CLEVIS
  5
108C36
 10
4.24361
 20
4.09219
 30
-1.00000e-016
  70
    32
  0
VERTEX
  8
CLEVIS
  5
108C37
 10
4.24316
 20
4.09213
 30
-1.00000e-016
  70
    32
  0
VERTEX
  8
CLEVIS
  5
108C38
 10
4.24272
 20
4.09207
 30
-1.00000e-016
  70
    32
  0
VERTEX
  8
CLEVIS
  5
108C39
 10
4.24228
 20
4.09201
 30
-1.00000e-016
  70
    32
  0
VERTEX
  8
CLEVIS
  5
108C3A
 10
4.24184
 20
4.09195
 30
-1.00000e-016
  70
    32
  0
VERTEX
  8
CLEVIS
  5
108C3B
 10
4.24140
 20
4.09188
 30
-1.00000e-016
  70
    32
  0
VERTEX
  8
CLEVIS
  5
108C3C
 10
4.24097
 20
4.09182
 30
-1.00000e-016
  70
    32
  0
VERTEX
  8
CLEVIS
  5
108C3D
 10
4.24053
 20
4.09176
 30
-1.00000e-016
  70
    32
  0
VERTEX
  8
CLEVIS
  5
108C3E
 10
4.24010
 20
4.09170
 30
-1.00000e-016
  70
    32
  0
VERTEX
  8
CLEVIS
  5
108C3F
 10
4.23967
 20
4.09164
 30
-1.00000e-016
  70
    32
  0
VERTEX
  8
CLEVIS
  5
108C40
 10
4.23924
 20
4.09157
 30
-1.00000e-016
  70
    32
  0
VERTEX
  8
CLEVIS
  5
108C41
 10
4.23881
 20
4.09151
 30
-1.00000e-016
  70
    32
  0
VERTEX
  8
CLEVIS
  5
108C42
 10
4.23838
 20
4.09145
 30
-1.00000e-016
  70
    32
  0
VERTEX
  8
CLEVIS
  5
108C43
 10
4.23796
 20
4.09139
 30
-1.00000e-016
  70
    32
  0
VERTEX
  8
CLEVIS
  5
108C44
 10
4.23754
 20
4.09132
 30
-1.00000e-016
  70
    32
  0
VERTEX
  8
CLEVIS
  5
108C45
 10
4.23712
 20
4.09126
 30
-1.00000e-016
  70
    32
  0
VERTEX
  8
CLEVIS
  5
108C46
 10
4.23670
 20
4.09120
 30
-1.00000e-016
  70
    32
  0
VERTEX
  8
CLEVIS
  5
108C47
 10
4.23628
 20
4.09113
 30
-1.00000e-016
  70
    32
  0
VERTEX
  8
CLEVIS
  5
108C48
 10
4.23587
 20
4.09107
 30
-1.00000e-016
  70
    32
  0
VERTEX
  8
CLEVIS
  5
108C49
 10
4.23545
 20
4.09100
 30
-1.00000e-016
  70
    32
  0
VERTEX
  8
CLEVIS
  5
108C4A
 10
4.23503
 20
4.09094
 30
-1.00000e-016
  70
    32
  0
VERTEX
  8
CLEVIS
  5
108C4B
 10
4.23461
 20
4.09088
 30
-1.00000e-016
  70
    32
  0
VERTEX
  8
CLEVIS
  5
108C4C
 10
4.23420
 20
4.09081
 30
-1.00000e-016
  70
    32
  0
VERTEX
  8
CLEVIS
  5
108C4D
 10
4.23378
 20
4.09075
 30
-1.00000e-016
  70
    32
  0
VERTEX
  8
CLEVIS
  5
108C4E
 10
4.23335
 20
4.09068
 30
-1.00000e-016
  70
    32
  0
VERTEX
  8
CLEVIS
  5
108C4F
 10
4.23293
 20
4.09061
 30
-1.00000e-016
  70
    32
  0
VERTEX
  8
CLEVIS
  5
108C50
 10
4.23251
 20
4.09055
 30
-1.00000e-016
  70
    32
  0
VERTEX
  8
CLEVIS
  5
108C51
 10
4.23208
 20
4.09048
 30
-1.00000e-016
  70
    32
  0
VERTEX
  8
CLEVIS
  5
108C52
 10
4.23166
 20
4.09041
 30
-1.00000e-016
  70
    32
  0
VERTEX
  8
CLEVIS
  5
108C53
 10
4.23123
 20
4.09035
 30
-1.00000e-016
  70
    32
  0
VERTEX
  8
CLEVIS
  5
108C54
 10
4.23081
 20
4.09028
 30
-1.00000e-016
  70
    32
  0
VERTEX
  8
CLEVIS
  5
108C55
 10
4.23038
 20
4.09021
 30
-1.00000e-016
  70
    32
  0
VERTEX
  8
CLEVIS
  5
108C56
 10
4.22995
 20
4.09014
 30
-1.00000e-016
  70
    32
  0
VERTEX
  8
CLEVIS
  5
108C57
 10
4.22952
 20
4.09008
 30
-1.00000e-016
  70
    32
  0
VERTEX
  8
CLEVIS
  5
108C58
 10
4.22909
 20
4.09001
 30
-1.00000e-016
  70
    32
  0
VERTEX
  8
CLEVIS
  5
108C59
 10
4.22866
 20
4.08994
 30
-1.00000e-016
  70
    32
  0
VERTEX
  8
CLEVIS
  5
108C5A
 10
4.22823
 20
4.08987
 30
-1.00000e-016
  70
    32
  0
VERTEX
  8
CLEVIS
  5
108C5B
 10
4.22780
 20
4.08980
 30
-1.00000e-016
  70
    32
  0
VERTEX
  8
CLEVIS
  5
108C5C
 10
4.22736
 20
4.08973
 30
-1.00000e-016
  70
    32
  0
VERTEX
  8
CLEVIS
  5
108C5D
 10
4.22693
 20
4.08966
 30
-1.00000e-016
  70
    32
  0
VERTEX
  8
CLEVIS
  5
108C5E
 10
4.22649
 20
4.08959
 30
-1.00000e-016
  70
    32
  0
VERTEX
  8
CLEVIS
  5
108C5F
 10
4.22606
 20
4.08952
 30
-1.00000e-016
  70
    32
  0
VERTEX
  8
CLEVIS
  5
108C60
 10
4.22562
 20
4.08945
 30
-1.00000e-016
  70
    32
  0
VERTEX
  8
CLEVIS
  5
108C61
 10
4.22518
 20
4.08938
 30
-1.00000e-016
  70
    32
  0
VERTEX
  8
CLEVIS
  5
108C62
 10
4.22475
 20
4.08932
 30
-1.00000e-016
  70
    32
  0
VERTEX
  8
CLEVIS
  5
108C63
 10
4.22431
 20
4.08925
 30
-1.00000e-016
  70
    32
  0
VERTEX
  8
CLEVIS
  5
108C64
 10
4.22387
 20
4.08918
 30
-1.00000e-016
  70
    32
  0
VERTEX
  8
CLEVIS
  5
108C65
 10
4.22343
 20
4.08911
 30
-1.00000e-016
  70
    32
  0
VERTEX
  8
CLEVIS
  5
108C66
 10
4.22299
 20
4.08903
 30
-1.00000e-016
  70
    32
  0
VERTEX
  8
CLEVIS
  5
108C67
 10
4.22255
 20
4.08896
 30
-1.00000e-016
  70
    32
  0
VERTEX
  8
CLEVIS
  5
108C68
 10
4.22211
 20
4.08889
 30
-1.00000e-016
  70
    32
  0
VERTEX
  8
CLEVIS
  5
108C69
 10
4.22166
 20
4.08882
 30
-1.00000e-016
  70
    32
  0
VERTEX
  8
CLEVIS
  5
108C6A
 10
4.22122
 20
4.08875
 30
-1.00000e-016
  70
    32
  0
VERTEX
  8
CLEVIS
  5
108C6B
 10
4.22078
 20
4.08868
 30
-1.00000e-016
  70
    32
  0
VERTEX
  8
CLEVIS
  5
108C6C
 10
4.22033
 20
4.08861
 30
-1.00000e-016
  70
    32
  0
VERTEX
  8
CLEVIS
  5
108C6D
 10
4.21989
 20
4.08854
 30
-1.00000e-016
  70
    32
  0
VERTEX
  8
CLEVIS
  5
108C6E
 10
4.21944
 20
4.08847
 30
-1.00000e-016
  70
    32
  0
VERTEX
  8
CLEVIS
  5
108C6F
 10
4.21900
 20
4.08840
 30
-1.00000e-016
  70
    32
  0
VERTEX
  8
CLEVIS
  5
108C70
 10
4.21855
 20
4.08833
 30
-1.00000e-016
  70
    32
  0
VERTEX
  8
CLEVIS
  5
108C71
 10
4.21810
 20
4.08826
 30
-1.00000e-016
  70
    32
  0
VERTEX
  8
CLEVIS
  5
108C72
 10
4.21766
 20
4.08819
 30
-1.00000e-016
  70
    32
  0
VERTEX
  8
CLEVIS
  5
108C73
 10
4.21721
 20
4.08812
 30
-1.00000e-016
  70
    32
  0
VERTEX
  8
CLEVIS
  5
108C74
 10
4.21676
 20
4.08805
 30
-1.00000e-016
  70
    32
  0
VERTEX
  8
CLEVIS
  5
108C75
 10
4.21631
 20
4.08798
 30
-1.00000e-016
  70
    32
  0
VERTEX
  8
CLEVIS
  5
108C76
 10
4.21586
 20
4.08791
 30
-1.00000e-016
  70
    32
  0
VERTEX
  8
CLEVIS
  5
108C77
 10
4.21541
 20
4.08784
 30
-1.00000e-016
  70
    32
  0
VERTEX
  8
CLEVIS
  5
108C78
 10
4.21496
 20
4.08777
 30
-1.00000e-016
  70
    32
  0
VERTEX
  8
CLEVIS
  5
108C79
 10
4.21451
 20
4.08770
 30
-1.00000e-016
  70
    32
  0
VERTEX
  8
CLEVIS
  5
108C7A
 10
4.21406
 20
4.08763
 30
-1.00000e-016
  70
    32
  0
VERTEX
  8
CLEVIS
  5
108C7B
 10
4.21361
 20
4.08756
 30
-1.00000e-016
  70
    32
  0
VERTEX
  8
CLEVIS
  5
108C7C
 10
4.21316
 20
4.08750
 30
-1.00000e-016
  70
    32
  0
VERTEX
  8
CLEVIS
  5
108C7D
 10
4.21271
 20
4.08743
 30
-1.00000e-016
  70
    32
  0
VERTEX
  8
CLEVIS
  5
108C7E
 10
4.21226
 20
4.08736
 30
-1.00000e-016
  70
    32
  0
VERTEX
  8
CLEVIS
  5
108C7F
 10
4.21180
 20
4.08729
 30
-1.00000e-016
  70
    32
  0
VERTEX
  8
CLEVIS
  5
108C80
 10
4.21135
 20
4.08722
 30
-1.00000e-016
  70
    32
  0
VERTEX
  8
CLEVIS
  5
108C81
 10
4.21090
 20
4.08715
 30
-1.00000e-016
  70
    32
  0
VERTEX
  8
CLEVIS
  5
108C82
 10
4.21045
 20
4.08709
 30
-1.00000e-016
  70
    32
  0
VERTEX
  8
CLEVIS
  5
108C83
 10
4.20999
 20
4.08702
 30
-1.00000e-016
  70
    32
  0
VERTEX
  8
CLEVIS
  5
108C84
 10
4.20954
 20
4.08695
 30
-1.00000e-016
  70
    32
  0
VERTEX
  8
CLEVIS
  5
108C85
 10
4.20908
 20
4.08688
 30
-1.00000e-016
  70
    32
  0
VERTEX
  8
CLEVIS
  5
108C86
 10
4.20863
 20
4.08682
 30
-1.00000e-016
  70
    32
  0
VERTEX
  8
CLEVIS
  5
108C87
 10
4.20818
 20
4.08675
 30
-1.00000e-016
  70
    32
  0
VERTEX
  8
CLEVIS
  5
108C88
 10
4.20772
 20
4.08668
 30
-1.00000e-016
  70
    32
  0
VERTEX
  8
CLEVIS
  5
108C89
 10
4.20727
 20
4.08662
 30
-1.00000e-016
  70
    32
  0
VERTEX
  8
CLEVIS
  5
108C8A
 10
4.20681
 20
4.08655
 30
-1.00000e-016
  70
    32
  0
VERTEX
  8
CLEVIS
  5
108C8B
 10
4.20636
 20
4.08649
 30
-1.00000e-016
  70
    32
  0
VERTEX
  8
CLEVIS
  5
108C8C
 10
4.20590
 20
4.08642
 30
-1.00000e-016
  70
    32
  0
VERTEX
  8
CLEVIS
  5
108C8D
 10
4.20545
 20
4.08636
 30
-1.00000e-016
  70
    32
  0
VERTEX
  8
CLEVIS
  5
108C8E
 10
4.20499
 20
4.08629
 30
-1.00000e-016
  70
    32
  0
VERTEX
  8
CLEVIS
  5
108C8F
 10
4.20453
 20
4.08623
 30
-1.00000e-016
  70
    32
  0
VERTEX
  8
CLEVIS
  5
108C90
 10
4.20408
 20
4.08617
 30
-1.00000e-016
  70
    32
  0
VERTEX
  8
CLEVIS
  5
108C91
 10
4.20362
 20
4.08610
 30
-1.00000e-016
  70
    32
  0
VERTEX
  8
CLEVIS
  5
108C92
 10
4.20317
 20
4.08604
 30
-1.00000e-016
  70
    32
  0
VERTEX
  8
CLEVIS
  5
108C93
 10
4.20271
 20
4.08598
 30
-1.00000e-016
  70
    32
  0
VERTEX
  8
CLEVIS
  5
108C94
 10
4.20226
 20
4.08592
 30
-1.00000e-016
  70
    32
  0
VERTEX
  8
CLEVIS
  5
108C95
 10
4.20180
 20
4.08586
 30
-1.00000e-016
  70
    32
  0
VERTEX
  8
CLEVIS
  5
108C96
 10
4.20134
 20
4.08579
 30
-1.00000e-016
  70
    32
  0
VERTEX
  8
CLEVIS
  5
108C97
 10
4.20089
 20
4.08573
 30
-1.00000e-016
  70
    32
  0
VERTEX
  8
CLEVIS
  5
108C98
 10
4.20043
 20
4.08567
 30
-1.00000e-016
  70
    32
  0
VERTEX
  8
CLEVIS
  5
108C99
 10
4.19998
 20
4.08561
 30
-1.00000e-016
  70
    32
  0
VERTEX
  8
CLEVIS
  5
108C9A
 10
4.19952
 20
4.08555
 30
-1.00000e-016
  70
    32
  0
VERTEX
  8
CLEVIS
  5
108C9B
 10
4.19906
 20
4.08550
 30
-1.00000e-016
  70
    32
  0
VERTEX
  8
CLEVIS
  5
108C9C
 10
4.19861
 20
4.08544
 30
-1.00000e-016
  70
    32
  0
VERTEX
  8
CLEVIS
  5
108C9D
 10
4.19815
 20
4.08538
 30
-1.00000e-016
  70
    32
  0
VERTEX
  8
CLEVIS
  5
108C9E
 10
4.19770
 20
4.08532
 30
-1.00000e-016
  70
    32
  0
VERTEX
  8
CLEVIS
  5
108C9F
 10
4.19724
 20
4.08527
 30
-1.00000e-016
  70
    32
  0
VERTEX
  8
CLEVIS
  5
108CA0
 10
4.19679
 20
4.08521
 30
-1.00000e-016
  70
    32
  0
VERTEX
  8
CLEVIS
  5
108CA1
 10
4.19633
 20
4.08515
 30
-1.00000e-016
  70
    32
  0
VERTEX
  8
CLEVIS
  5
108CA2
 10
4.19588
 20
4.08510
 30
-1.00000e-016
  70
    32
  0
VERTEX
  8
CLEVIS
  5
108CA3
 10
4.19542
 20
4.08504
 30
-1.00000e-016
  70
    32
  0
VERTEX
  8
CLEVIS
  5
108CA4
 10
4.19497
 20
4.08499
 30
-1.00000e-016
  70
    32
  0
VERTEX
  8
CLEVIS
  5
108CA5
 10
4.19451
 20
4.08494
 30
-1.00000e-016
  70
    32
  0
VERTEX
  8
CLEVIS
  5
108CA6
 10
4.19406
 20
4.08489
 30
-1.00000e-016
  70
    32
  0
VERTEX
  8
CLEVIS
  5
108CA7
 10
4.19360
 20
4.08483
 30
-1.00000e-016
  70
    32
  0
VERTEX
  8
CLEVIS
  5
108CA8
 10
4.19315
 20
4.08478
 30
-1.00000e-016
  70
    32
  0
VERTEX
  8
CLEVIS
  5
108CA9
 10
4.19270
 20
4.08473
 30
-1.00000e-016
  70
    32
  0
VERTEX
  8
CLEVIS
  5
108CAA
 10
4.19224
 20
4.08468
 30
-1.00000e-016
  70
    32
  0
VERTEX
  8
CLEVIS
  5
108CAB
 10
4.19179
 20
4.08463
 30
-1.00000e-016
  70
    32
  0
VERTEX
  8
CLEVIS
  5
108CAC
 10
4.19134
 20
4.08458
 30
-1.00000e-016
  70
    32
  0
VERTEX
  8
CLEVIS
  5
108CAD
 10
4.19089
 20
4.08453
 30
-1.00000e-016
  70
    32
  0
VERTEX
  8
CLEVIS
  5
108CAE
 10
4.19043
 20
4.08449
 30
-1.00000e-016
  70
    32
  0
VERTEX
  8
CLEVIS
  5
108CAF
 10
4.18998
 20
4.08444
 30
-1.00000e-016
  70
    32
  0
VERTEX
  8
CLEVIS
  5
108CB0
 10
4.18953
 20
4.08439
 30
-1.00000e-016
  70
    32
  0
VERTEX
  8
CLEVIS
  5
108CB1
 10
4.18908
 20
4.08435
 30
-1.00000e-016
  70
    32
  0
VERTEX
  8
CLEVIS
  5
108CB2
 10
4.18863
 20
4.08430
 30
-1.00000e-016
  70
    32
  0
VERTEX
  8
CLEVIS
  5
108CB3
 10
4.18818
 20
4.08426
 30
-1.00000e-016
  70
    32
  0
VERTEX
  8
CLEVIS
  5
108CB4
 10
4.18773
 20
4.08422
 30
-1.00000e-016
  70
    32
  0
VERTEX
  8
CLEVIS
  5
108CB5
 10
4.18728
 20
4.08417
 30
-1.00000e-016
  70
    32
  0
VERTEX
  8
CLEVIS
  5
108CB6
 10
4.18683
 20
4.08413
 30
-1.00000e-016
  70
    32
  0
VERTEX
  8
CLEVIS
  5
108CB7
 10
4.18638
 20
4.08409
 30
-1.00000e-016
  70
    32
  0
VERTEX
  8
CLEVIS
  5
108CB8
 10
4.18593
 20
4.08405
 30
-1.00000e-016
  70
    32
  0
VERTEX
  8
CLEVIS
  5
108CB9
 10
4.18549
 20
4.08401
 30
-1.00000e-016
  70
    32
  0
VERTEX
  8
CLEVIS
  5
108CBA
 10
4.18504
 20
4.08397
 30
-1.00000e-016
  70
    32
  0
VERTEX
  8
CLEVIS
  5
108CBB
 10
4.18459
 20
4.08394
 30
-1.00000e-016
  70
    32
  0
VERTEX
  8
CLEVIS
  5
108CBC
 10
4.18414
 20
4.08390
 30
-1.00000e-016
  70
    32
  0
VERTEX
  8
CLEVIS
  5
108CBD
 10
4.18370
 20
4.08386
 30
-1.00000e-016
  70
    32
  0
VERTEX
  8
CLEVIS
  5
108CBE
 10
4.18325
 20
4.08383
 30
-1.00000e-016
  70
    32
  0
VERTEX
  8
CLEVIS
  5
108CBF
 10
4.18281
 20
4.08379
 30
-1.00000e-016
  70
    32
  0
VERTEX
  8
CLEVIS
  5
108CC0
 10
4.18236
 20
4.08376
 30
-1.00000e-016
  70
    32
  0
VERTEX
  8
CLEVIS
  5
108CC1
 10
4.18192
 20
4.08373
 30
-1.00000e-016
  70
    32
  0
VERTEX
  8
CLEVIS
  5
108CC2
 10
4.18148
 20
4.08370
 30
-1.00000e-016
  70
    32
  0
VERTEX
  8
CLEVIS
  5
108CC3
 10
4.18104
 20
4.08367
 30
-1.00000e-016
  70
    32
  0
VERTEX
  8
CLEVIS
  5
108CC4
 10
4.18059
 20
4.08364
 30
-1.00000e-016
  70
    32
  0
VERTEX
  8
CLEVIS
  5
108CC5
 10
4.18015
 20
4.08361
 30
-1.00000e-016
  70
    32
  0
VERTEX
  8
CLEVIS
  5
108CC6
 10
4.17971
 20
4.08358
 30
-1.00000e-016
  70
    32
  0
VERTEX
  8
CLEVIS
  5
108CC7
 10
4.17927
 20
4.08355
 30
-1.00000e-016
  70
    32
  0
VERTEX
  8
CLEVIS
  5
108CC8
 10
4.17883
 20
4.08353
 30
-1.00000e-016
  70
    32
  0
VERTEX
  8
CLEVIS
  5
108CC9
 10
4.17839
 20
4.08350
 30
-1.00000e-016
  70
    32
  0
VERTEX
  8
CLEVIS
  5
108CCA
 10
4.17796
 20
4.08348
 30
-1.00000e-016
  70
    32
  0
VERTEX
  8
CLEVIS
  5
108CCB
 10
4.17752
 20
4.08345
 30
-1.00000e-016
  70
    32
  0
VERTEX
  8
CLEVIS
  5
108CCC
 10
4.17708
 20
4.08343
 30
-1.00000e-016
  70
    32
  0
VERTEX
  8
CLEVIS
  5
108CCD
 10
4.17665
 20
4.08341
 30
-1.00000e-016
  70
    32
  0
VERTEX
  8
CLEVIS
  5
108CCE
 10
4.17621
 20
4.08339
 30
-1.00000e-016
  70
    32
  0
VERTEX
  8
CLEVIS
  5
108CCF
 10
4.17578
 20
4.08337
 30
-1.00000e-016
  70
    32
  0
VERTEX
  8
CLEVIS
  5
108CD0
 10
4.17534
 20
4.08335
 30
-1.00000e-016
  70
    32
  0
VERTEX
  8
CLEVIS
  5
108CD1
 10
4.17491
 20
4.08334
 30
-1.00000e-016
  70
    32
  0
VERTEX
  8
CLEVIS
  5
108CD2
 10
4.17448
 20
4.08332
 30
-1.00000e-016
  70
    32
  0
VERTEX
  8
CLEVIS
  5
108CD3
 10
4.17405
 20
4.08331
 30
-1.00000e-016
  70
    32
  0
VERTEX
  8
CLEVIS
  5
108CD4
 10
4.17362
 20
4.08329
 30
-1.00000e-016
  70
    32
  0
VERTEX
  8
CLEVIS
  5
108CD5
 10
4.17319
 20
4.08328
 30
-1.00000e-016
  70
    32
  0
VERTEX
  8
CLEVIS
  5
108CD6
 10
4.17276
 20
4.08327
 30
-1.00000e-016
  70
    32
  0
VERTEX
  8
CLEVIS
  5
108CD7
 10
4.17233
 20
4.08326
 30
-1.00000e-016
  70
    32
  0
VERTEX
  8
CLEVIS
  5
108CD8
 10
4.17190
 20
4.08325
 30
-1.00000e-016
  70
    32
  0
VERTEX
  8
CLEVIS
  5
108CD9
 10
4.17148
 20
4.08324
 30
-1.00000e-016
  70
    32
  0
VERTEX
  8
CLEVIS
  5
108CDA
 10
4.17105
 20
4.08323
 30
-1.00000e-016
  70
    32
  0
VERTEX
  8
CLEVIS
  5
108CDB
 10
4.17063
 20
4.08323
 30
-1.00000e-016
  70
    32
  0
VERTEX
  8
CLEVIS
  5
108CDC
 10
4.17021
 20
4.08322
 30
-1.00000e-016
  70
    32
  0
VERTEX
  8
CLEVIS
  5
108CDD
 10
4.16978
 20
4.08322
 30
-1.00000e-016
  70
    32
  0
VERTEX
  8
CLEVIS
  5
108CDE
 10
4.16936
 20
4.08322
 30
-1.00000e-016
  70
    32
  0
VERTEX
  8
CLEVIS
  5
108CDF
 10
4.16894
 20
4.08321
 30
-1.00000e-016
  70
    32
  0
VERTEX
  8
CLEVIS
  5
108CE0
 10
4.16852
 20
4.08321
 30
-1.00000e-016
  70
    32
  0
VERTEX
  8
CLEVIS
  5
108CE1
 10
4.16810
 20
4.08322
 30
-1.00000e-016
  70
    32
  0
VERTEX
  8
CLEVIS
  5
108CE2
 10
4.16768
 20
4.08322
 30
-1.00000e-016
  70
    32
  0
VERTEX
  8
CLEVIS
  5
108CE3
 10
4.16726
 20
4.08322
 30
-1.00000e-016
  70
    32
  0
VERTEX
  8
CLEVIS
  5
108CE4
 10
4.16683
 20
4.08323
 30
-1.00000e-016
  70
    32
  0
VERTEX
  8
CLEVIS
  5
108CE5
 10
4.16641
 20
4.08323
 30
-1.00000e-016
  70
    32
  0
VERTEX
  8
CLEVIS
  5
108CE6
 10
4.16599
 20
4.08324
 30
-1.00000e-016
  70
    32
  0
VERTEX
  8
CLEVIS
  5
108CE7
 10
4.16556
 20
4.08325
 30
-1.00000e-016
  70
    32
  0
VERTEX
  8
CLEVIS
  5
108CE8
 10
4.16513
 20
4.08326
 30
-1.00000e-016
  70
    32
  0
VERTEX
  8
CLEVIS
  5
108CE9
 10
4.16470
 20
4.08327
 30
-1.00000e-016
  70
    32
  0
VERTEX
  8
CLEVIS
  5
108CEA
 10
4.16428
 20
4.08328
 30
-1.00000e-016
  70
    32
  0
VERTEX
  8
CLEVIS
  5
108CEB
 10
4.16385
 20
4.08329
 30
-1.00000e-016
  70
    32
  0
VERTEX
  8
CLEVIS
  5
108CEC
 10
4.16342
 20
4.08331
 30
-1.00000e-016
  70
    32
  0
VERTEX
  8
CLEVIS
  5
108CED
 10
4.16299
 20
4.08332
 30
-1.00000e-016
  70
    32
  0
VERTEX
  8
CLEVIS
  5
108CEE
 10
4.16255
 20
4.08334
 30
-1.00000e-016
  70
    32
  0
VERTEX
  8
CLEVIS
  5
108CEF
 10
4.16212
 20
4.08335
 30
-1.00000e-016
  70
    32
  0
VERTEX
  8
CLEVIS
  5
108CF0
 10
4.16169
 20
4.08337
 30
-1.00000e-016
  70
    32
  0
VERTEX
  8
CLEVIS
  5
108CF1
 10
4.16125
 20
4.08339
 30
-1.00000e-016
  70
    32
  0
VERTEX
  8
CLEVIS
  5
108CF2
 10
4.16082
 20
4.08341
 30
-1.00000e-016
  70
    32
  0
VERTEX
  8
CLEVIS
  5
108CF3
 10
4.16038
 20
4.08343
 30
-1.00000e-016
  70
    32
  0
VERTEX
  8
CLEVIS
  5
108CF4
 10
4.15995
 20
4.08345
 30
-1.00000e-016
  70
    32
  0
VERTEX
  8
CLEVIS
  5
108CF5
 10
4.15951
 20
4.08348
 30
-1.00000e-016
  70
    32
  0
VERTEX
  8
CLEVIS
  5
108CF6
 10
4.15907
 20
4.08350
 30
-1.00000e-016
  70
    32
  0
VERTEX
  8
CLEVIS
  5
108CF7
 10
4.15863
 20
4.08353
 30
-1.00000e-016
  70
    32
  0
VERTEX
  8
CLEVIS
  5
108CF8
 10
4.15819
 20
4.08355
 30
-1.00000e-016
  70
    32
  0
VERTEX
  8
CLEVIS
  5
108CF9
 10
4.15775
 20
4.08358
 30
-1.00000e-016
  70
    32
  0
VERTEX
  8
CLEVIS
  5
108CFA
 10
4.15731
 20
4.08361
 30
-1.00000e-016
  70
    32
  0
VERTEX
  8
CLEVIS
  5
108CFB
 10
4.15687
 20
4.08364
 30
-1.00000e-016
  70
    32
  0
VERTEX
  8
CLEVIS
  5
108CFC
 10
4.15643
 20
4.08367
 30
-1.00000e-016
  70
    32
  0
VERTEX
  8
CLEVIS
  5
108CFD
 10
4.15599
 20
4.08370
 30
-1.00000e-016
  70
    32
  0
VERTEX
  8
CLEVIS
  5
108CFE
 10
4.15554
 20
4.08373
 30
-1.00000e-016
  70
    32
  0
VERTEX
  8
CLEVIS
  5
108CFF
 10
4.15510
 20
4.08376
 30
-1.00000e-016
  70
    32
  0
VERTEX
  8
CLEVIS
  5
108D00
 10
4.15466
 20
4.08379
 30
-1.00000e-016
  70
    32
  0
VERTEX
  8
CLEVIS
  5
108D01
 10
4.15421
 20
4.08383
 30
-1.00000e-016
  70
    32
  0
VERTEX
  8
CLEVIS
  5
108D02
 10
4.15377
 20
4.08386
 30
-1.00000e-016
  70
    32
  0
VERTEX
  8
CLEVIS
  5
108D03
 10
4.15332
 20
4.08390
 30
-1.00000e-016
  70
    32
  0
VERTEX
  8
CLEVIS
  5
108D04
 10
4.15287
 20
4.08394
 30
-1.00000e-016
  70
    32
  0
VERTEX
  8
CLEVIS
  5
108D05
 10
4.15243
 20
4.08397
 30
-1.00000e-016
  70
    32
  0
VERTEX
  8
CLEVIS
  5
108D06
 10
4.15198
 20
4.08401
 30
-1.00000e-016
  70
    32
  0
VERTEX
  8
CLEVIS
  5
108D07
 10
4.15153
 20
4.08405
 30
-1.00000e-016
  70
    32
  0
VERTEX
  8
CLEVIS
  5
108D08
 10
4.15108
 20
4.08409
 30
-1.00000e-016
  70
    32
  0
VERTEX
  8
CLEVIS
  5
108D09
 10
4.15063
 20
4.08413
 30
-1.00000e-016
  70
    32
  0
VERTEX
  8
CLEVIS
  5
108D0A
 10
4.15019
 20
4.08417
 30
-1.00000e-016
  70
    32
  0
VERTEX
  8
CLEVIS
  5
108D0B
 10
4.14974
 20
4.08422
 30
-1.00000e-016
  70
    32
  0
VERTEX
  8
CLEVIS
  5
108D0C
 10
4.14929
 20
4.08426
 30
-1.00000e-016
  70
    32
  0
VERTEX
  8
CLEVIS
  5
108D0D
 10
4.14884
 20
4.08430
 30
-1.00000e-016
  70
    32
  0
VERTEX
  8
CLEVIS
  5
108D0E
 10
4.14838
 20
4.08435
 30
-1.00000e-016
  70
    32
  0
VERTEX
  8
CLEVIS
  5
108D0F
 10
4.14793
 20
4.08439
 30
-1.00000e-016
  70
    32
  0
VERTEX
  8
CLEVIS
  5
108D10
 10
4.14748
 20
4.08444
 30
-1.00000e-016
  70
    32
  0
VERTEX
  8
CLEVIS
  5
108D11
 10
4.14703
 20
4.08449
 30
-1.00000e-016
  70
    32
  0
VERTEX
  8
CLEVIS
  5
108D12
 10
4.14658
 20
4.08453
 30
-1.00000e-016
  70
    32
  0
VERTEX
  8
CLEVIS
  5
108D13
 10
4.14613
 20
4.08458
 30
-1.00000e-016
  70
    32
  0
VERTEX
  8
CLEVIS
  5
108D14
 10
4.14567
 20
4.08463
 30
-1.00000e-016
  70
    32
  0
VERTEX
  8
CLEVIS
  5
108D15
 10
4.14522
 20
4.08468
 30
-1.00000e-016
  70
    32
  0
VERTEX
  8
CLEVIS
  5
108D16
 10
4.14477
 20
4.08473
 30
-1.00000e-016
  70
    32
  0
VERTEX
  8
CLEVIS
  5
108D17
 10
4.14431
 20
4.08478
 30
-1.00000e-016
  70
    32
  0
VERTEX
  8
CLEVIS
  5
108D18
 10
4.14386
 20
4.08483
 30
-1.00000e-016
  70
    32
  0
VERTEX
  8
CLEVIS
  5
108D19
 10
4.14341
 20
4.08489
 30
-1.00000e-016
  70
    32
  0
VERTEX
  8
CLEVIS
  5
108D1A
 10
4.14295
 20
4.08494
 30
-1.00000e-016
  70
    32
  0
VERTEX
  8
CLEVIS
  5
108D1B
 10
4.14250
 20
4.08499
 30
-1.00000e-016
  70
    32
  0
VERTEX
  8
CLEVIS
  5
108D1C
 10
4.14204
 20
4.08504
 30
-1.00000e-016
  70
    32
  0
VERTEX
  8
CLEVIS
  5
108D1D
 10
4.14159
 20
4.08510
 30
-1.00000e-016
  70
    32
  0
VERTEX
  8
CLEVIS
  5
108D1E
 10
4.14113
 20
4.08515
 30
-1.00000e-016
  70
    32
  0
VERTEX
  8
CLEVIS
  5
108D1F
 10
4.14068
 20
4.08521
 30
-1.00000e-016
  70
    32
  0
VERTEX
  8
CLEVIS
  5
108D20
 10
4.14022
 20
4.08527
 30
-1.00000e-016
  70
    32
  0
VERTEX
  8
CLEVIS
  5
108D21
 10
4.13977
 20
4.08532
 30
-1.00000e-016
  70
    32
  0
VERTEX
  8
CLEVIS
  5
108D22
 10
4.13931
 20
4.08538
 30
-1.00000e-016
  70
    32
  0
VERTEX
  8
CLEVIS
  5
108D23
 10
4.13886
 20
4.08544
 30
-1.00000e-016
  70
    32
  0
VERTEX
  8
CLEVIS
  5
108D24
 10
4.13840
 20
4.08550
 30
-1.00000e-016
  70
    32
  0
VERTEX
  8
CLEVIS
  5
108D25
 10
4.13794
 20
4.08555
 30
-1.00000e-016
  70
    32
  0
VERTEX
  8
CLEVIS
  5
108D26
 10
4.13749
 20
4.08561
 30
-1.00000e-016
  70
    32
  0
VERTEX
  8
CLEVIS
  5
108D27
 10
4.13703
 20
4.08567
 30
-1.00000e-016
  70
    32
  0
VERTEX
  8
CLEVIS
  5
108D28
 10
4.13658
 20
4.08573
 30
-1.00000e-016
  70
    32
  0
VERTEX
  8
CLEVIS
  5
108D29
 10
4.13612
 20
4.08579
 30
-1.00000e-016
  70
    32
  0
VERTEX
  8
CLEVIS
  5
108D2A
 10
4.13566
 20
4.08586
 30
-1.00000e-016
  70
    32
  0
VERTEX
  8
CLEVIS
  5
108D2B
 10
4.13521
 20
4.08592
 30
-1.00000e-016
  70
    32
  0
VERTEX
  8
CLEVIS
  5
108D2C
 10
4.13475
 20
4.08598
 30
-1.00000e-016
  70
    32
  0
VERTEX
  8
CLEVIS
  5
108D2D
 10
4.13430
 20
4.08604
 30
-1.00000e-016
  70
    32
  0
VERTEX
  8
CLEVIS
  5
108D2E
 10
4.13384
 20
4.08610
 30
-1.00000e-016
  70
    32
  0
VERTEX
  8
CLEVIS
  5
108D2F
 10
4.13339
 20
4.08617
 30
-1.00000e-016
  70
    32
  0
VERTEX
  8
CLEVIS
  5
108D30
 10
4.13293
 20
4.08623
 30
-1.00000e-016
  70
    32
  0
VERTEX
  8
CLEVIS
  5
108D31
 10
4.13247
 20
4.08629
 30
-1.00000e-016
  70
    32
  0
VERTEX
  8
CLEVIS
  5
108D32
 10
4.13202
 20
4.08636
 30
-1.00000e-016
  70
    32
  0
VERTEX
  8
CLEVIS
  5
108D33
 10
4.13156
 20
4.08642
 30
-1.00000e-016
  70
    32
  0
VERTEX
  8
CLEVIS
  5
108D34
 10
4.13111
 20
4.08649
 30
-1.00000e-016
  70
    32
  0
VERTEX
  8
CLEVIS
  5
108D35
 10
4.13065
 20
4.08655
 30
-1.00000e-016
  70
    32
  0
VERTEX
  8
CLEVIS
  5
108D36
 10
4.13020
 20
4.08662
 30
-1.00000e-016
  70
    32
  0
VERTEX
  8
CLEVIS
  5
108D37
 10
4.12974
 20
4.08668
 30
-1.00000e-016
  70
    32
  0
VERTEX
  8
CLEVIS
  5
108D38
 10
4.12929
 20
4.08675
 30
-1.00000e-016
  70
    32
  0
VERTEX
  8
CLEVIS
  5
108D39
 10
4.12883
 20
4.08682
 30
-1.00000e-016
  70
    32
  0
VERTEX
  8
CLEVIS
  5
108D3A
 10
4.12838
 20
4.08688
 30
-1.00000e-016
  70
    32
  0
VERTEX
  8
CLEVIS
  5
108D3B
 10
4.12793
 20
4.08695
 30
-1.00000e-016
  70
    32
  0
VERTEX
  8
CLEVIS
  5
108D3C
 10
4.12747
 20
4.08702
 30
-1.00000e-016
  70
    32
  0
VERTEX
  8
CLEVIS
  5
108D3D
 10
4.12702
 20
4.08709
 30
-1.00000e-016
  70
    32
  0
VERTEX
  8
CLEVIS
  5
108D3E
 10
4.12657
 20
4.08715
 30
-1.00000e-016
  70
    32
  0
VERTEX
  8
CLEVIS
  5
108D3F
 10
4.12611
 20
4.08722
 30
-1.00000e-016
  70
    32
  0
VERTEX
  8
CLEVIS
  5
108D40
 10
4.12566
 20
4.08729
 30
-1.00000e-016
  70
    32
  0
VERTEX
  8
CLEVIS
  5
108D41
 10
4.12521
 20
4.08736
 30
-1.00000e-016
  70
    32
  0
VERTEX
  8
CLEVIS
  5
108D42
 10
4.12476
 20
4.08743
 30
-1.00000e-016
  70
    32
  0
VERTEX
  8
CLEVIS
  5
108D43
 10
4.12430
 20
4.08750
 30
-1.00000e-016
  70
    32
  0
VERTEX
  8
CLEVIS
  5
108D44
 10
4.12385
 20
4.08756
 30
-1.00000e-016
  70
    32
  0
VERTEX
  8
CLEVIS
  5
108D45
 10
4.12340
 20
4.08763
 30
-1.00000e-016
  70
    32
  0
VERTEX
  8
CLEVIS
  5
108D46
 10
4.12295
 20
4.08770
 30
-1.00000e-016
  70
    32
  0
VERTEX
  8
CLEVIS
  5
108D47
 10
4.12250
 20
4.08777
 30
-1.00000e-016
  70
    32
  0
VERTEX
  8
CLEVIS
  5
108D48
 10
4.12205
 20
4.08784
 30
-1.00000e-016
  70
    32
  0
VERTEX
  8
CLEVIS
  5
108D49
 10
4.12160
 20
4.08791
 30
-1.00000e-016
  70
    32
  0
VERTEX
  8
CLEVIS
  5
108D4A
 10
4.12115
 20
4.08798
 30
-1.00000e-016
  70
    32
  0
VERTEX
  8
CLEVIS
  5
108D4B
 10
4.12070
 20
4.08805
 30
-1.00000e-016
  70
    32
  0
VERTEX
  8
CLEVIS
  5
108D4C
 10
4.12026
 20
4.08812
 30
-1.00000e-016
  70
    32
  0
VERTEX
  8
CLEVIS
  5
108D4D
 10
4.11981
 20
4.08819
 30
-1.00000e-016
  70
    32
  0
VERTEX
  8
CLEVIS
  5
108D4E
 10
4.11936
 20
4.08826
 30
-1.00000e-016
  70
    32
  0
VERTEX
  8
CLEVIS
  5
108D4F
 10
4.11891
 20
4.08833
 30
-1.00000e-016
  70
    32
  0
VERTEX
  8
CLEVIS
  5
108D50
 10
4.11847
 20
4.08840
 30
-1.00000e-016
  70
    32
  0
VERTEX
  8
CLEVIS
  5
108D51
 10
4.11802
 20
4.08847
 30
-1.00000e-016
  70
    32
  0
VERTEX
  8
CLEVIS
  5
108D52
 10
4.11758
 20
4.08854
 30
-1.00000e-016
  70
    32
  0
VERTEX
  8
CLEVIS
  5
108D53
 10
4.11713
 20
4.08861
 30
-1.00000e-016
  70
    32
  0
VERTEX
  8
CLEVIS
  5
108D54
 10
4.11669
 20
4.08868
 30
-1.00000e-016
  70
    32
  0
VERTEX
  8
CLEVIS
  5
108D55
 10
4.11624
 20
4.08875
 30
-1.00000e-016
  70
    32
  0
VERTEX
  8
CLEVIS
  5
108D56
 10
4.11580
 20
4.08882
 30
-1.00000e-016
  70
    32
  0
VERTEX
  8
CLEVIS
  5
108D57
 10
4.11536
 20
4.08889
 30
-1.00000e-016
  70
    32
  0
VERTEX
  8
CLEVIS
  5
108D58
 10
4.11492
 20
4.08896
 30
-1.00000e-016
  70
    32
  0
VERTEX
  8
CLEVIS
  5
108D59
 10
4.11448
 20
4.08903
 30
-1.00000e-016
  70
    32
  0
VERTEX
  8
CLEVIS
  5
108D5A
 10
4.11404
 20
4.08911
 30
-1.00000e-016
  70
    32
  0
VERTEX
  8
CLEVIS
  5
108D5B
 10
4.11360
 20
4.08918
 30
-1.00000e-016
  70
    32
  0
VERTEX
  8
CLEVIS
  5
108D5C
 10
4.11316
 20
4.08925
 30
-1.00000e-016
  70
    32
  0
VERTEX
  8
CLEVIS
  5
108D5D
 10
4.11272
 20
4.08932
 30
-1.00000e-016
  70
    32
  0
VERTEX
  8
CLEVIS
  5
108D5E
 10
4.11228
 20
4.08938
 30
-1.00000e-016
  70
    32
  0
VERTEX
  8
CLEVIS
  5
108D5F
 10
4.11184
 20
4.08945
 30
-1.00000e-016
  70
    32
  0
VERTEX
  8
CLEVIS
  5
108D60
 10
4.11141
 20
4.08952
 30
-1.00000e-016
  70
    32
  0
VERTEX
  8
CLEVIS
  5
108D61
 10
4.11097
 20
4.08959
 30
-1.00000e-016
  70
    32
  0
VERTEX
  8
CLEVIS
  5
108D62
 10
4.11054
 20
4.08966
 30
-1.00000e-016
  70
    32
  0
VERTEX
  8
CLEVIS
  5
108D63
 10
4.11010
 20
4.08973
 30
-1.00000e-016
  70
    32
  0
VERTEX
  8
CLEVIS
  5
108D64
 10
4.10967
 20
4.08980
 30
-1.00000e-016
  70
    32
  0
VERTEX
  8
CLEVIS
  5
108D65
 10
4.10924
 20
4.08987
 30
-1.00000e-016
  70
    32
  0
VERTEX
  8
CLEVIS
  5
108D66
 10
4.10880
 20
4.08994
 30
-1.00000e-016
  70
    32
  0
VERTEX
  8
CLEVIS
  5
108D67
 10
4.10837
 20
4.09001
 30
-1.00000e-016
  70
    32
  0
VERTEX
  8
CLEVIS
  5
108D68
 10
4.10794
 20
4.09008
 30
-1.00000e-016
  70
    32
  0
VERTEX
  8
CLEVIS
  5
108D69
 10
4.10751
 20
4.09014
 30
-1.00000e-016
  70
    32
  0
VERTEX
  8
CLEVIS
  5
108D6A
 10
4.10708
 20
4.09021
 30
-1.00000e-016
  70
    32
  0
VERTEX
  8
CLEVIS
  5
108D6B
 10
4.10666
 20
4.09028
 30
-1.00000e-016
  70
    32
  0
VERTEX
  8
CLEVIS
  5
108D6C
 10
4.10623
 20
4.09035
 30
-1.00000e-016
  70
    32
  0
VERTEX
  8
CLEVIS
  5
108D6D
 10
4.10580
 20
4.09041
 30
-1.00000e-016
  70
    32
  0
VERTEX
  8
CLEVIS
  5
108D6E
 10
4.10538
 20
4.09048
 30
-1.00000e-016
  70
    32
  0
VERTEX
  8
CLEVIS
  5
108D6F
 10
4.10496
 20
4.09055
 30
-1.00000e-016
  70
    32
  0
VERTEX
  8
CLEVIS
  5
108D70
 10
4.10453
 20
4.09061
 30
-1.00000e-016
  70
    32
  0
VERTEX
  8
CLEVIS
  5
108D71
 10
4.10411
 20
4.09068
 30
-1.00000e-016
  70
    32
  0
VERTEX
  8
CLEVIS
  5
108D72
 10
4.10369
 20
4.09075
 30
-1.00000e-016
  70
    32
  0
VERTEX
  8
CLEVIS
  5
108D73
 10
4.10327
 20
4.09081
 30
-1.00000e-016
  70
    32
  0
VERTEX
  8
CLEVIS
  5
108D74
 10
4.10285
 20
4.09088
 30
-1.00000e-016
  70
    32
  0
VERTEX
  8
CLEVIS
  5
108D75
 10
4.10243
 20
4.09094
 30
-1.00000e-016
  70
    32
  0
VERTEX
  8
CLEVIS
  5
108D76
 10
4.10201
 20
4.09100
 30
-1.00000e-016
  70
    32
  0
VERTEX
  8
CLEVIS
  5
108D77
 10
4.10160
 20
4.09107
 30
-1.00000e-016
  70
    32
  0
VERTEX
  8
CLEVIS
  5
108D78
 10
4.10118
 20
4.09113
 30
-1.00000e-016
  70
    32
  0
VERTEX
  8
CLEVIS
  5
108D79
 10
4.10077
 20
4.09120
 30
-1.00000e-016
  70
    32
  0
VERTEX
  8
CLEVIS
  5
108D7A
 10
4.10035
 20
4.09126
 30
-1.00000e-016
  70
    32
  0
VERTEX
  8
CLEVIS
  5
108D7B
 10
4.09993
 20
4.09132
 30
-1.00000e-016
  70
    32
  0
VERTEX
  8
CLEVIS
  5
108D7C
 10
4.09951
 20
4.09139
 30
-1.00000e-016
  70
    32
  0
VERTEX
  8
CLEVIS
  5
108D7D
 10
4.09908
 20
4.09145
 30
-1.00000e-016
  70
    32
  0
VERTEX
  8
CLEVIS
  5
108D7E
 10
4.09866
 20
4.09151
 30
-1.00000e-016
  70
    32
  0
VERTEX
  8
CLEVIS
  5
108D7F
 10
4.09823
 20
4.09157
 30
-1.00000e-016
  70
    32
  0
VERTEX
  8
CLEVIS
  5
108D80
 10
4.09780
 20
4.09164
 30
-1.00000e-016
  70
    32
  0
VERTEX
  8
CLEVIS
  5
108D81
 10
4.09737
 20
4.09170
 30
-1.00000e-016
  70
    32
  0
VERTEX
  8
CLEVIS
  5
108D82
 10
4.09693
 20
4.09176
 30
-1.00000e-016
  70
    32
  0
VERTEX
  8
CLEVIS
  5
108D83
 10
4.09650
 20
4.09182
 30
-1.00000e-016
  70
    32
  0
VERTEX
  8
CLEVIS
  5
108D84
 10
4.09606
 20
4.09188
 30
-1.00000e-016
  70
    32
  0
VERTEX
  8
CLEVIS
  5
108D85
 10
4.09562
 20
4.09195
 30
-1.00000e-016
  70
    32
  0
VERTEX
  8
CLEVIS
  5
108D86
 10
4.09518
 20
4.09201
 30
-1.00000e-016
  70
    32
  0
VERTEX
  8
CLEVIS
  5
108D87
 10
4.09474
 20
4.09207
 30
-1.00000e-016
  70
    32
  0
VERTEX
  8
CLEVIS
  5
108D88
 10
4.09430
 20
4.09213
 30
-1.00000e-016
  70
    32
  0
VERTEX
  8
CLEVIS
  5
108D89
 10
4.09386
 20
4.09219
 30
-1.00000e-016
  70
    32
  0
VERTEX
  8
CLEVIS
  5
108D8A
 10
4.09341
 20
4.09225
 30
-1.00000e-016
  70
    32
  0
VERTEX
  8
CLEVIS
  5
108D8B
 10
4.09296
 20
4.09231
 30
-1.00000e-016
  70
    32
  0
VERTEX
  8
CLEVIS
  5
108D8C
 10
4.09252
 20
4.09237
 30
-1.00000e-016
  70
    32
  0
VERTEX
  8
CLEVIS
  5
108D8D
 10
4.09207
 20
4.09243
 30
-1.00000e-016
  70
    32
  0
VERTEX
  8
CLEVIS
  5
108D8E
 10
4.09162
 20
4.09249
 30
-1.00000e-016
  70
    32
  0
VERTEX
  8
CLEVIS
  5
108D8F
 10
4.09117
 20
4.09254
 30
-1.00000e-016
  70
    32
  0
VERTEX
  8
CLEVIS
  5
108D90
 10
4.09072
 20
4.09260
 30
-1.00000e-016
  70
    32
  0
VERTEX
  8
CLEVIS
  5
108D91
 10
4.09026
 20
4.09266
 30
-1.00000e-016
  70
    32
  0
VERTEX
  8
CLEVIS
  5
108D92
 10
4.08981
 20
4.09272
 30
-1.00000e-016
  70
    32
  0
VERTEX
  8
CLEVIS
  5
108D93
 10
4.08936
 20
4.09277
 30
-1.00000e-016
  70
    32
  0
VERTEX
  8
CLEVIS
  5
108D94
 10
4.08890
 20
4.09283
 30
-1.00000e-016
  70
    32
  0
VERTEX
  8
CLEVIS
  5
108D95
 10
4.08845
 20
4.09288
 30
-1.00000e-016
  70
    32
  0
VERTEX
  8
CLEVIS
  5
108D96
 10
4.08799
 20
4.09294
 30
-1.00000e-016
  70
    32
  0
VERTEX
  8
CLEVIS
  5
108D97
 10
4.08753
 20
4.09299
 30
-1.00000e-016
  70
    32
  0
VERTEX
  8
CLEVIS
  5
108D98
 10
4.08708
 20
4.09305
 30
-1.00000e-016
  70
    32
  0
VERTEX
  8
CLEVIS
  5
108D99
 10
4.08662
 20
4.09310
 30
-1.00000e-016
  70
    32
  0
VERTEX
  8
CLEVIS
  5
108D9A
 10
4.08616
 20
4.09315
 30
-1.00000e-016
  70
    32
  0
VERTEX
  8
CLEVIS
  5
108D9B
 10
4.08570
 20
4.09320
 30
-1.00000e-016
  70
    32
  0
VERTEX
  8
CLEVIS
  5
108D9C
 10
4.08525
 20
4.09326
 30
-1.00000e-016
  70
    32
  0
VERTEX
  8
CLEVIS
  5
108D9D
 10
4.08479
 20
4.09331
 30
-1.00000e-016
  70
    32
  0
VERTEX
  8
CLEVIS
  5
108D9E
 10
4.08433
 20
4.09336
 30
-1.00000e-016
  70
    32
  0
VERTEX
  8
CLEVIS
  5
108D9F
 10
4.08387
 20
4.09341
 30
-1.00000e-016
  70
    32
  0
VERTEX
  8
CLEVIS
  5
108DA0
 10
4.08341
 20
4.09346
 30
-1.00000e-016
  70
    32
  0
VERTEX
  8
CLEVIS
  5
108DA1
 10
4.08295
 20
4.09351
 30
-1.00000e-016
  70
    32
  0
VERTEX
  8
CLEVIS
  5
108DA2
 10
4.08250
 20
4.09355
 30
-1.00000e-016
  70
    32
  0
VERTEX
  8
CLEVIS
  5
108DA3
 10
4.08204
 20
4.09360
 30
-1.00000e-016
  70
    32
  0
VERTEX
  8
CLEVIS
  5
108DA4
 10
4.08158
 20
4.09365
 30
-1.00000e-016
  70
    32
  0
VERTEX
  8
CLEVIS
  5
108DA5
 10
4.08112
 20
4.09369
 30
-1.00000e-016
  70
    32
  0
VERTEX
  8
CLEVIS
  5
108DA6
 10
4.08067
 20
4.09374
 30
-1.00000e-016
  70
    32
  0
VERTEX
  8
CLEVIS
  5
108DA7
 10
4.08021
 20
4.09378
 30
-1.00000e-016
  70
    32
  0
VERTEX
  8
CLEVIS
  5
108DA8
 10
4.07976
 20
4.09382
 30
-1.00000e-016
  70
    32
  0
VERTEX
  8
CLEVIS
  5
108DA9
 10
4.07930
 20
4.09387
 30
-1.00000e-016
  70
    32
  0
VERTEX
  8
CLEVIS
  5
108DAA
 10
4.07885
 20
4.09391
 30
-1.00000e-016
  70
    32
  0
VERTEX
  8
CLEVIS
  5
108DAB
 10
4.07839
 20
4.09395
 30
-1.00000e-016
  70
    32
  0
VERTEX
  8
CLEVIS
  5
108DAC
 10
4.07794
 20
4.09399
 30
-1.00000e-016
  70
    32
  0
VERTEX
  8
CLEVIS
  5
108DAD
 10
4.07749
 20
4.09403
 30
-1.00000e-016
  70
    32
  0
VERTEX
  8
CLEVIS
  5
108DAE
 10
4.07703
 20
4.09407
 30
-1.00000e-016
  70
    32
  0
VERTEX
  8
CLEVIS
  5
108DAF
 10
4.07658
 20
4.09410
 30
-1.00000e-016
  70
    32
  0
VERTEX
  8
CLEVIS
  5
108DB0
 10
4.07613
 20
4.09414
 30
-1.00000e-016
  70
    32
  0
VERTEX
  8
CLEVIS
  5
108DB1
 10
4.07569
 20
4.09418
 30
-1.00000e-016
  70
    32
  0
VERTEX
  8
CLEVIS
  5
108DB2
 10
4.07524
 20
4.09421
 30
-1.00000e-016
  70
    32
  0
VERTEX
  8
CLEVIS
  5
108DB3
 10
4.07479
 20
4.09425
 30
-1.00000e-016
  70
    32
  0
VERTEX
  8
CLEVIS
  5
108DB4
 10
4.07435
 20
4.09428
 30
-1.00000e-016
  70
    32
  0
VERTEX
  8
CLEVIS
  5
108DB5
 10
4.07390
 20
4.09431
 30
-1.00000e-016
  70
    32
  0
VERTEX
  8
CLEVIS
  5
108DB6
 10
4.07346
 20
4.09434
 30
-1.00000e-016
  70
    32
  0
VERTEX
  8
CLEVIS
  5
108DB7
 10
4.07302
 20
4.09437
 30
-1.00000e-016
  70
    32
  0
VERTEX
  8
CLEVIS
  5
108DB8
 10
4.07258
 20
4.09440
 30
-1.00000e-016
  70
    32
  0
VERTEX
  8
CLEVIS
  5
108DB9
 10
4.07214
 20
4.09443
 30
-1.00000e-016
  70
    32
  0
VERTEX
  8
CLEVIS
  5
108DBA
 10
4.07171
 20
4.09446
 30
-1.00000e-016
  70
    32
  0
VERTEX
  8
CLEVIS
  5
108DBB
 10
4.07127
 20
4.09448
 30
-1.00000e-016
  70
    32
  0
VERTEX
  8
CLEVIS
  5
108DBC
 10
4.07084
 20
4.09451
 30
-1.00000e-016
  70
    32
  0
VERTEX
  8
CLEVIS
  5
108DBD
 10
4.07041
 20
4.09453
 30
-1.00000e-016
  70
    32
  0
VERTEX
  8
CLEVIS
  5
108DBE
 10
4.06998
 20
4.09455
 30
-1.00000e-016
  70
    32
  0
VERTEX
  8
CLEVIS
  5
108DBF
 10
4.06955
 20
4.09457
 30
-1.00000e-016
  70
    32
  0
VERTEX
  8
CLEVIS
  5
108DC0
 10
4.06913
 20
4.09459
 30
-1.00000e-016
  70
    32
  0
VERTEX
  8
CLEVIS
  5
108DC1
 10
4.06870
 20
4.09461
 30
-1.00000e-016
  70
    32
  0
VERTEX
  8
CLEVIS
  5
108DC2
 10
4.06828
 20
4.09463
 30
-1.00000e-016
  70
    32
  0
VERTEX
  8
CLEVIS
  5
108DC3
 10
4.06786
 20
4.09465
 30
-1.00000e-016
  70
    32
  0
VERTEX
  8
CLEVIS
  5
108DC4
 10
4.06744
 20
4.09466
 30
-1.00000e-016
  70
    32
  0
VERTEX
  8
CLEVIS
  5
108DC5
 10
4.06702
 20
4.09468
 30
-1.00000e-016
  70
    32
  0
VERTEX
  8
CLEVIS
  5
108DC6
 10
4.06660
 20
4.09469
 30
-1.00000e-016
  70
    32
  0
VERTEX
  8
CLEVIS
  5
108DC7
 10
4.06617
 20
4.09471
 30
-1.00000e-016
  70
    32
  0
VERTEX
  8
CLEVIS
  5
108DC8
 10
4.06575
 20
4.09472
 30
-1.00000e-016
  70
    32
  0
VERTEX
  8
CLEVIS
  5
108DC9
 10
4.06532
 20
4.09473
 30
-1.00000e-016
  70
    32
  0
VERTEX
  8
CLEVIS
  5
108DCA
 10
4.06489
 20
4.09474
 30
-1.00000e-016
  70
    32
  0
VERTEX
  8
CLEVIS
  5
108DCB
 10
4.06446
 20
4.09475
 30
-1.00000e-016
  70
    32
  0
VERTEX
  8
CLEVIS
  5
108DCC
 10
4.06403
 20
4.09476
 30
-1.00000e-016
  70
    32
  0
VERTEX
  8
CLEVIS
  5
108DCD
 10
4.06360
 20
4.09477
 30
-1.00000e-016
  70
    32
  0
VERTEX
  8
CLEVIS
  5
108DCE
 10
4.06317
 20
4.09477
 30
-1.00000e-016
  70
    32
  0
VERTEX
  8
CLEVIS
  5
108DCF
 10
4.06273
 20
4.09478
 30
-1.00000e-016
  70
    32
  0
SEQEND
  8
CLEVIS
  5
108DD0
  0
TEXT
  5
107E26
  8
TEXT
 10
3.7900737311081851
 20
-0.4794357280447504
 30
0.0
 40
0.156
  1
BT-1P
  7
ROMANS
  0
INSERT
  5
107E27
  8
C
  2
CENT-MRK
 10
3.359968003245986
 20
5.9808364020651323
 30
0.0
 41
0.20599365234375
 42
0.20599365234375
 43
0.20599365234375
 50
270.0
  0
INSERT
  5
107E28
  8
C
  2
CENT-MRK
 10
3.359968003245986
 20
5.2308364020651332
 30
0.0
 41
0.20599365234375
 42
0.20599365234375
 43
0.20599365234375
 50
270.0
  0
INSERT
  5
107E2A
  8
C
  2
CENT-MRK
 10
3.3504327509796359
 20
5.6229768030212499
 30
0.0
 41
0.18310546875
 42
0.18310546875
 43
0.18310546875
 50
270.0
  0
INSERT
  5
107E2F
  8
C
  2
CENT-MRK
 10
2.9764327509796349
 20
5.6229768030212499
 30
0.0
 41
0.18310546875
 42
0.18310546875
 43
0.18310546875
 50
270.0
  0
INSERT
  5
107E30
  8
C
  2
CENT-MRK
 10
2.985968003245985
 20
5.2308364020651332
 30
0.0
 41
0.20599365234375
 42
0.20599365234375
 43
0.20599365234375
 50
270.0
  0
INSERT
  5
107E31
  8
C
  2
CENT-MRK
 10
2.985968003245985
 20
5.9808364020651323
 30
0.0
 41
0.20599365234375
 42
0.20599365234375
 43
0.20599365234375
 50
270.0
  0
INSERT
  5
107E34
  8
C
  2
CENT-MRK
 10
7.8905441072031346
 20
-1.2372624670540799
 30
0.0
 41
0.29296875
 42
0.29296875
 43
0.29296875
 50
270.0
  0
LINE
  5
107E35
  8
BT-1P-BODY
 10
7.9559928781938618
 20
-1.705365334815756
 30
0.0
 11
7.9559928781938618
 21
0.7946346651842468
 31
0.0
  0
LINE
  5
107E36
  8
BT-1P-BODY
 10
6.4559928781938636
 20
-1.705365334815752
 30
0.0
 11
6.4559928781938636
 21
0.7946346651842468
 31
0.0
  0
LINE
  5
107E37
  8
BT-1P-BODY
 10
6.4559928781938636
 20
-1.205365334815756
 30
0.0
 11
7.9559928781938547
 21
-1.2053653348157589
 31
0.0
  0
LINE
  5
107E38
  8
BT-1P-BODY
 10
6.4559928781938574
 20
-1.705365334815752
 30
0.0
 11
7.9559928781938547
 21
-1.705365334815756
 31
0.0
  0
CIRCLE
  5
107E3A
  8
BT-1P-BODY
 10
7.2059928781938574
 20
-0.4553653348157605
 30
0.0
 40
0.5615000000000001
  0
CIRCLE
  5
107E3B
  8
HID
 10
7.2059928781938574
 20
-0.4553653348157605
 30
0.0
 40
0.5985000000000001
  0
INSERT
  5
107E3D
  8
C
  2
CENT-MRK
 10
6.7197748963246582
 20
-1.1549885424647099
 30
0.0
 41
0.18310546875
 42
0.18310546875
 43
0.18310546875
 50
270.0
  0
CIRCLE
  5
107E3E
  8
CI
 10
6.6434928781938574
 20
-1.0178653348157589
 30
0.0
 40
0.0625
  0
CIRCLE
  5
107E3F
  8
CI
 10
7.7684928781938547
 20
-1.0178653348157589
 30
0.0
 40
0.0785
  0
CIRCLE
  5
107E40
  8
HID
 10
7.7684928781938547
 20
-1.0178653348157589
 30
0.0
 40
0.0965
  0
INSERT
  5
107E41
  8
C
  2
CENT-MRK
 10
7.3280441072031373
 20
-0.6747624670540821
 30
0.0
 41
0.29296875
 42
0.29296875
 43
0.29296875
 50
270.0
  0
LINE
  5
107E42
  8
BT-1P-BODY
 10
7.9559928781938618
 20
0.2946346651842395
 30
0.0
 11
6.4559928781938636
 21
0.2946346651842431
 31
0.0
  0
LINE
  5
107E43
  8
BT-1P-BODY
 10
6.4559928781938636
 20
0.7946346651842468
 30
0.0
 11
7.9559928781938618
 21
0.7946346651842431
 31
0.0
  0
INSERT
  5
107E44
  8
C
  2
CENT-MRK
 10
6.7655441072031373
 20
-0.1122624670540819
 30
0.0
 41
0.29296875
 42
0.29296875
 43
0.29296875
 50
270.0
  0
CIRCLE
  5
107E45
  8
HID
 10
6.6434928781938574
 20
0.1071346651842395
 30
0.0
 40
0.0965
  0
CIRCLE
  5
107E46
  8
CI
 10
6.6434928781938574
 20
0.1071346651842395
 30
0.0
 40
0.0785
  0
INSERT
  5
107E47
  8
C
  2
CENT-MRK
 10
7.8447748963246564
 20
-0.0299885424647108
 30
0.0
 41
0.18310546875
 42
0.18310546875
 43
0.18310546875
 50
270.0
  0
CIRCLE
  5
107E48
  8
CI
 10
7.7684928781938547
 20
0.1071346651842395
 30
0.0
 40
0.0625
  0
INSERT
  5
107E4E
  8
C
  2
CENT-MRK
 10
4.8531991220350017
 20
2.9422104992511131
 30
0.0
 41
0.29296875
 42
0.29296875
 43
0.29296875
 50
270.0
  0
CIRCLE
  5
107E4F
  8
HID
 10
4.7311478930257218
 20
3.161607631489435
 30
0.0
 40
0.0965
  0
CIRCLE
  5
107E50
  8
BT-1P-BODY
 10
4.7311478930257218
 20
3.161607631489435
 30
0.0
 40
0.0785
  0
INSERT
  5
107E51
  8
C
  2
CENT-MRK
 10
3.6824299111565368
 20
3.0244844238404829
 30
0.0
 41
0.18310546875
 42
0.18310546875
 43
0.18310546875
 50
270.0
  0
POLYLINE
  5
107E53
  8
BT-1P-BODY
 66
     1
 10
0.0
 20
0.0
 30
0.0
  0
VERTEX
  5
108BE1
  8
BT-1P-BODY
 10
3.4186478930257298
 20
3.261607631489432
 30
0.0
  0
VERTEX
  5
108BE2
  8
BT-1P-BODY
 10
3.4186478930257298
 20
1.901607631489433
 30
0.0
  0
VERTEX
  5
108BE3
  8
BT-1P-BODY
 10
4.9186478930257289
 20
1.901607631489433
 30
0.0
  0
VERTEX
  5
108BE4
  8
BT-1P-BODY
 10
4.9186478930257289
 20
3.261607631489432
 30
0.0
  0
SEQEND
  5
108BE5
  8
BT-1P-BODY
  0
LINE
  5
107E54
  8
CENTER
 10
4.1686478930257289
 20
1.5949483699542379
 30
0.0
 11
4.1686478930257289
 21
5.0547635613863733
 31
0.0
  0
INSERT
  5
107E57
  8
C
  2
CENT-MRK
 10
3.7281991220350168
 20
2.1922104992511131
 30
0.0
 41
0.29296875
 42
0.29296875
 43
0.29296875
 50
270.0
  0
CIRCLE
  5
107E58
  8
BT-1P-BODY
 10
3.6061478930257369
 20
2.411607631489435
 30
0.0
 40
0.0785
  0
CIRCLE
  5
107E59
  8
HID
 10
3.6061478930257369
 20
2.411607631489435
 30
0.0
 40
0.0965
  0
CIRCLE
  5
107E5A
  8
BT-1P-BODY
 10
4.7311478930257218
 20
2.411607631489435
 30
0.0
 40
0.063
  0
INSERT
  5
107E5B
  8
C
  2
CENT-MRK
 10
4.8074299111565226
 20
2.2744844238404842
 30
0.0
 41
0.18310546875
 42
0.18310546875
 43
0.18310546875
 50
270.0
  0
LINE
  5
107E5C
  8
CLEVIS
 10
4.0627324371199673
 20
4.0947780647379712
 30
-0.0000000000000001
 11
3.8215550441292239
 21
4.0947780647379712
 31
-0.0000000000000001
  0
LINE
  5
107E5D
  8
CLEVIS
 10
3.7937321423082371
 20
4.2773780647379711
 30
-0.0000000000000001
 11
4.5437321423082357
 21
4.277378064737972
 31
-0.0000000000000001
  0
ARC
  5
107E5E
  8
CLEVIS
 10
3.9905205294050079
 20
4.031578064737972
 30
-0.0000000000000001
 40
0.063211612903226
 50
341.58304492876891
 51
88.901711978868093
  0
LINE
  5
107E5F
  8
BT-1P-BODY
 10
2.9186478930257298
 20
4.011607631489432
 30
0.0
 11
5.4186478930257289
 21
4.011607631489432
 31
0.0
  0
POLYLINE
  5
107E60
  8
CI
 66
     1
 10
0.0
 20
0.0
 30
0.0
  0
VERTEX
  5
108BE6
  8
CI
 10
4.3491478930257186
 20
4.2973780647379716
 30
0.0
 42
0.1482728675894313
  0
VERTEX
  5
108BE7
  8
CI
 10
4.2552878930257201
 20
4.3783780647379711
 30
0.0
  0
VERTEX
  5
108BE8
  8
CI
 10
4.0820078930257138
 20
4.3783780647379711
 30
0.0
 42
0.1482728675894313
  0
VERTEX
  5
108BE9
  8
CI
 10
3.9881478930257219
 20
4.2973780647379716
 30
0.0
  0
VERTEX
  5
108BEA
  8
CI
 10
3.9881478930257219
 20
4.277378064737972
 30
0.0
  0
VERTEX
  5
108BEB
  8
CI
 10
4.3491478930257186
 20
4.277378064737972
 30
0.0
  0
VERTEX
  5
108BEC
  8
CI
 10
4.3491478930257186
 20
4.2973780647379716
 30
0.0
  0
VERTEX
  5
108BED
  8
CI
 10
3.9881478930257219
 20
4.2973780647379716
 30
0.0
  0
SEQEND
  5
108BEE
  8
CI
  0
INSERT
  5
107E61
  8
BT-1P-J-1
  2
1_CLOSED
 10
3.4767384264926902
 20
5.8355780456199042
 30
0.0
  0
LINE
  5
107E62
  8
CLEVIS
 10
3.8215550441292239
 20
4.0947780647379712
 30
-0.0000000000000001
 11
3.8215550441292239
 21
4.2773780647379711
 31
-0.0000000000000001
  0
LINE
  5
107E63
  8
CLEVIS
 10
3.7937321423082371
 20
4.2773780647379711
 30
-0.0000000000000001
 11
3.7937321423082371
 21
4.0947780647379712
 31
-0.0000000000000001
  0
ARC
  5
107E64
  8
B-1P-LINK
 10
3.7292904648858238
 20
4.4867445237033019
 30
0.0
 40
0.375
 50
224.5717125347727
 51
279.89507796523043
  0
INSERT
  5
107E65
  8
BT-1P-J-1
  2
1_OPEN
 10
0.1759007228591929
 20
5.8355780456199042
 30
0.0
  0
LINE
  5
107E67
  8
BT-1P-BODY
 10
2.9186478930257298
 20
4.011607631489432
 30
0.0
 11
2.9186478930257298
 21
3.261607631489432
 31
0.0
  0
LINE
  5
107E68
  8
BT-1P-BODY
 10
2.9186478930257298
 20
3.261607631489432
 30
0.0
 11
3.4186478930257298
 21
3.261607631489432
 31
0.0
  0
CIRCLE
  5
107E69
  8
BT-1P-BODY
 10
3.6061478930257369
 20
3.161607631489435
 30
0.0
 40
0.063
  0
CIRCLE
  5
107E6A
  8
BT-1P-BODY
 10
3.1061478930257298
 20
3.8246076314894348
 30
0.0
 40
0.0935
  0
CIRCLE
  5
107E6B
  8
BT-1P-BODY
 10
3.1061478930257298
 20
3.8246076314894348
 30
0.0
 40
0.0935
  0
CIRCLE
  5
107E6C
  8
B-1P-ILINK
 10
3.1061478930257338
 20
3.8246076314894122
 30
0.0
 40
0.0625
  0
LINE
  5
107E6D
  8
B-1P-ILINK
 10
3.1219734375583639
 20
4.091747363526415
 30
0.0
 11
3.1584209190268582
 21
4.011607631489432
 31
0.0
  0
LINE
  5
107E6E
  8
B-1P-ILINK
 10
2.847332505990904
 20
4.091747363526415
 30
0.0
 11
2.9186478930257289
 21
3.9349410280317421
 31
0.0
  0
CIRCLE
  5
107E6F
  8
BT-1P-BODY
 10
3.4811478930257298
 20
3.8246076314894339
 30
0.0
 40
0.0935
  0
CIRCLE
  5
107E70
  8
BT-1P-BODY
 10
3.4811478930257298
 20
3.8246076314894339
 30
0.0
 40
0.0935
  0
CIRCLE
  5
107E71
  8
B-1P-LINK
 10
3.4811478930257409
 20
3.8246076314894148
 30
0.0
 40
0.0625
  0
LINE
  5
107E72
  8
B-1P-LINK
 10
3.2223325059909151
 20
4.091747363526415
 30
0.0
 11
3.258779987459409
 21
4.011607631489432
 31
0.0
  0
LINE
  5
107E73
  8
CLEVIS
 10
3.7937321423082371
 20
4.0947780647379712
 30
-0.0000000000000001
 11
3.8215550441292239
 21
4.0947780647379712
 31
-0.0000000000000001
  0
ARC
  5
107E74
  8
B-1P-LINK
 10
3.9362876250627279
 20
4.0316047916663189
 30
0.0
 40
0.0625
 50
341.33982293939249
 51
198.6601770606074
  0
CIRCLE
  5
107E75
  8
B-1P-LINK
 10
3.2741507328488408
 20
4.2797473635263978
 30
0.0
 40
0.0625
  0
CIRCLE
  5
107E78
  8
B-1P-ILINK
 10
2.8991507328488302
 20
4.2797473635263952
 30
0.0
 40
0.0625
  0
LINE
  5
107E79
  8
CLEVIS
 10
4.5159092404872476
 20
4.2773780647379711
 30
-0.0000000000000001
 11
4.5159092404872503
 21
4.0947780647379712
 31
-0.0000000000000001
  0
LINE
  5
107E7A
  8
CLEVIS
 10
4.5437321423082384
 20
4.2773780647379711
 30
-0.0000000000000001
 11
4.5437321423082384
 21
4.0947780647379712
 31
-0.0000000000000001
  0
ARC
  5
107E7B
  8
B-1P-LINK
 10
4.60800532116561
 20
4.4867445237033019
 30
0.0
 40
0.375
 50
260.10492203476952
 51
315.42828746522719
  0
INSERT
  5
107E7C
  8
BT-1P-J-1
  2
1_OPEN
 10
8.1613950631922414
 20
5.8355780456199042
 30
0.0
 41
-1.0
  0
LINE
  5
107E7F
  8
BT-1P-BODY
 10
5.4186478930257289
 20
4.011607631489432
 30
0.0
 11
5.4186478930257289
 21
3.261607631489432
 31
0.0
  0
LINE
  5
107E80
  8
BT-1P-BODY
 10
4.9186478930257289
 20
3.261607631489432
 30
0.0
 11
5.4186478930257289
 21
3.261607631489432
 31
0.0
  0
CIRCLE
  5
107E81
  8
BT-1P-BODY
 10
4.8561478930257289
 20
3.8246076314894339
 30
0.0
 40
0.0935
  0
LINE
  5
107E82
  8
CLEVIS
 10
4.5159092404872476
 20
4.0947780647379712
 30
-0.0000000000000001
 11
4.274731847496505
 21
4.0947780647379712
 31
-0.0000000000000001
  0
ARC
  5
107E83
  8
B-1P-LINK
 10
4.4010081609887051
 20
4.0316047916663189
 30
0.0
 40
0.0625
 50
341.33982293939249
 51
198.6601770606074
  0
ARC
  5
107E84
  8
CLEVIS
 10
4.34694375521146
 20
4.031578064737972
 30
-0.0000000000000001
 40
0.063211612903226
 50
91.098288021128837
 51
198.4169550712308
  0
LINE
  5
107E85
  8
CLEVIS
 10
4.5159092404872476
 20
4.0947780647379712
 30
-0.0000000000000001
 11
4.5437321423082384
 21
4.0947780647379712
 31
-0.0000000000000001
  0
CIRCLE
  5
107E86
  8
B-1P-LINK
 10
4.8561478930256916
 20
3.8246076314894148
 30
0.0
 40
0.0625
  0
CIRCLE
  5
107E87
  8
BT-1P-BODY
 10
5.2311478930257307
 20
3.8246076314894339
 30
0.0
 40
0.0935
  0
CIRCLE
  5
107E88
  8
B-1P-ILINK
 10
5.2311478930256987
 20
3.8246076314894122
 30
0.0
 40
0.0625
  0
LINE
  5
107E89
  8
B-1P-LINK
 10
5.1149632800605183
 20
4.091747363526415
 30
0.0
 11
5.0785157985920231
 21
4.011607631489432
 31
0.0
  0
LINE
  5
107E8A
  8
B-1P-ILINK
 10
5.2153223484930686
 20
4.091747363526415
 30
0.0
 11
5.1788748670245752
 21
4.011607631489432
 31
0.0
  0
LINE
  5
107E8B
  8
B-1P-ILINK
 10
5.4899632800605298
 20
4.091747363526415
 30
0.0
 11
5.418647893025704
 21
3.9349410280317421
 31
0.0
  0
CIRCLE
  5
107E8C
  8
B-1P-LINK
 10
5.063145053202593
 20
4.2797473635263978
 30
0.0
 40
0.0625
  0
CIRCLE
  5
107E8D
  8
B-1P-ILINK
 10
5.4381450532026028
 20
4.2797473635263952
 30
0.0
 40
0.0625
  0
CIRCLE
  5
107E92
  8
CI
  6
CONTINUOUS
 10
7.7059928781938636
 20
3.0117673008410488
 30
0.0
 40
0.1020919478781606
  0
CIRCLE
  5
107E93
  8
HID
 10
7.7059928781938636
 20
3.0117673008410488
 30
0.0
 40
0.1158072694783243
  0
LINE
  5
107E95
  8
BT-1P-BODY
 10
7.9559928781938618
 20
4.011607631489432
 30
0.0
 11
7.9559928781938618
 21
1.9016076314894319
 31
0.0
  0
LINE
  5
107E96
  8
BT-1P-BODY
 10
6.4559928781938636
 20
4.011607631489432
 30
0.0
 11
6.4559928781938636
 21
1.9016076314894319
 31
0.0
  0
LINE
  5
107E97
  8
CENTER
 10
7.2059928781938636
 20
1.5949483699542359
 30
0.0
 11
7.2059928781938636
 21
5.0547635613863706
 31
0.0
  0
LINE
  5
107E99
  8
BT-1P-BODY
 10
6.4559928781938636
 20
1.9016076314894319
 30
0.0
 11
7.9559928781938618
 21
1.9016076314894319
 31
0.0
  0
CIRCLE
  5
107E9C
  8
HID
 10
7.7059928781938636
 20
2.4014479621378051
 30
0.0
 40
0.1158072694783243
  0
CIRCLE
  5
107E9D
  8
CI
  6
CONTINUOUS
 10
7.7059928781938636
 20
2.4014479621378051
 30
0.0
 40
0.1020919478781606
  0
CIRCLE
  5
107E9E
  8
CI
  6
CONTINUOUS
 10
7.7059928781938636
 20
2.4014479621378051
 30
0.0
 40
0.03125
  0
LINE
  5
107E9F
  8
CENTER
 10
7.638492878193861
 20
2.4014479621378051
 30
0.0
 11
7.7734928781938608
 21
2.4014479621378051
 31
0.0
  0
LINE
  5
107EA0
  8
CENTER
 10
7.7059928781938636
 20
2.4689479621378081
 30
0.0
 11
7.7059928781938636
 21
2.3339479621378061
 31
0.0
  0
CIRCLE
  5
107EA1
  8
CI
  6
CONTINUOUS
 10
7.7059928781938636
 20
3.0117673008410488
 30
0.0
 40
0.03125
  0
LINE
  5
107EA2
  8
CENTER
 10
7.638492878193861
 20
3.0117673008410488
 30
0.0
 11
7.7734928781938608
 21
3.0117673008410488
 31
0.0
  0
LINE
  5
107EA3
  8
CENTER
 10
7.7059928781938636
 20
3.0792673008410518
 30
0.0
 11
7.7059928781938636
 21
2.9442673008410498
 31
0.0
  0
LINE
  5
107EA4
  8
BT-1P-J-1
 10
7.4510234660326438
 20
4.0917473635264141
 30
0.0
 11
7.4510234660326438
 21
4.4667473635264141
 31
0.0
  0
LINE
  5
107EA5
  8
BT-1P-J-1
 10
7.7060234660326428
 20
4.7167473635264141
 30
0.0
 11
7.7060234660326428
 21
4.091747363526415
 31
0.0
  0
LINE
  5
107EA6
  8
BT-1P-J-1
 10
6.9610234660326462
 20
4.0917473635264141
 30
0.0
 11
6.9610234660326462
 21
4.4667473635264141
 31
0.0
  0
LINE
  5
107EA7
  8
BT-1P-J-1
 10
6.7060234660326428
 20
4.7167473635264141
 30
0.0
 11
6.7060234660326428
 21
4.0917473635264141
 31
0.0
  0
LINE
  5
107EA8
  8
B-1P-ILINK
 10
6.9610234660326418
 20
4.4496076314894051
 30
0.0
 11
6.9610234660326418
 21
3.6996076314894042
 31
0.0
  0
LINE
  5
107EA9
  8
B-1P-ILINK
 10
7.4510234660326438
 20
4.4496076314894051
 30
0.0
 11
7.4510234660326438
 21
3.6996076314894042
 31
0.0
  0
LINE
  5
107EAA
  8
BT-1P-BODY
 10
6.4559928781938636
 20
3.261607631489432
 30
0.0
 11
7.9559928781938618
 21
3.261607631489432
 31
0.0
  0
LINE
  5
107EAB
  8
B-1P-ILINK
 10
6.9610234660326418
 20
3.6996076314894042
 30
0.0
 11
7.4510234660326438
 21
3.6996076314894042
 31
0.0
  0
LINE
  5
107EAC
  8
BT-1P-BODY
 10
6.9599928781938649
 20
3.511607631489432
 30
0.0
 11
7.4519928781938658
 21
3.511607631489432
 31
0.0
  0
LINE
  5
107EAD
  8
BT-1P-BODY
 10
6.9599928781938623
 20
4.011607631489432
 30
0.0
 11
6.9599928781938623
 21
3.511607631489432
 31
0.0
  0
LINE
  5
107EAE
  8
BT-1P-BODY
 10
6.4559928781938636
 20
4.011607631489432
 30
0.0
 11
6.9599928781938623
 21
4.011607631489432
 31
0.0
  0
LINE
  5
107EAF
  8
BT-1P-J-1
 10
6.7060234660326428
 20
4.0917473635264141
 30
0.0
 11
6.9610234660326462
 21
4.0917473635264141
 31
0.0
  0
LINE
  5
107EB0
  8
BT-1P-BODY
 10
7.4519928781938658
 20
4.011607631489432
 30
0.0
 11
7.4519928781938658
 21
3.511607631489432
 31
0.0
  0
LINE
  5
107EB1
  8
BT-1P-BODY
 10
7.4519928781938658
 20
4.011607631489432
 30
0.0
 11
7.9559928781938618
 21
4.011607631489432
 31
0.0
  0
LINE
  5
107EB2
  8
BT-1P-J-1
 10
7.4510234660326438
 20
4.091747363526415
 30
0.0
 11
7.7060234660326428
 21
4.091747363526415
 31
0.0
  0
LINE
  5
107EB3
  8
B-1P-ILINK
 10
6.9610234660326418
 20
4.4496076314894051
 30
0.0
 11
7.4510234660326438
 21
4.4496076314894033
 31
0.0
  0
LINE
  5
107EB4
  8
BT-1P-J-1
 10
6.9610234660326462
 20
4.4667473635264141
 30
0.0
 11
7.4510234660326438
 21
4.4667473635264141
 31
0.0
  0
LINE
  5
107EB5
  8
BT-1P-J-1
 10
6.7060234660326428
 20
4.7167473635264141
 30
0.0
 11
7.7060234660326428
 21
4.7167473635264141
 31
0.0
  0
LINE
  5
1080C9
  8
BT-1P-J-1
 10
3.4621507328488361
 20
6.2601000106702012
 30
0.0
 11
3.4621507328488361
 21
5.2601000106702012
 31
0.0
  0
LINE
  5
1080CA
  8
BT-1P-J-1
 10
2.7121507328488361
 20
6.2601000106702012
 30
0.0
 11
2.7121507328488361
 21
5.2601000106702012
 31
0.0
  0
LINE
  5
1080CC
  8
BT-1P-J-1
 10
2.7121507328488361
 20
5.2601000106702012
 30
0.0
 11
3.4621507328488361
 21
5.2601000106702012
 31
0.0
  0
LINE
  5
1080D2
  8
BT-1P-J-1
 10
2.7121507328488361
 20
6.2601000106702012
 30
0.0
 11
3.4621507328488361
 21
6.2601000106702012
 31
0.0
  0
CIRCLE
  5
1080D3
  8
BT-1P-J-1
 10
2.900150732848835
 20
5.7601000106702012
 30
0.0
 40
0.0625
  0
CIRCLE
  5
1080D4
  8
BT-1P-J-1
 10
3.2741507328488351
 20
5.7601000106702012
 30
0.0
 40
0.0625
  0
CIRCLE
  5
108137
  8
BT-1P-J-1
 10
3.2741507328488368
 20
6.1351000106702021
 30
0.0
 40
0.068
  0
CIRCLE
  5
108138
  8
PARTH
 10
3.2741507328488368
 20
6.1351000106702021
 30
0.0
 40
0.082
  0
CIRCLE
  5
108139
  8
BT-1P-J-1
 10
2.9001507328488372
 20
6.1351000106702021
 30
0.0
 40
0.068
  0
CIRCLE
  5
10813A
  8
PARTH
 10
2.9001507328488372
 20
6.1351000106702021
 30
0.0
 40
0.082
  0
CIRCLE
  5
10813B
  8
BT-1P-J-1
 10
2.9001507328488372
 20
5.3851000106702029
 30
0.0
 40
0.068
  0
CIRCLE
  5
10813C
  8
PARTH
 10
2.9001507328488372
 20
5.3851000106702029
 30
0.0
 40
0.082
  0
CIRCLE
  5
10813D
  8
BT-1P-J-1
 10
3.2741507328488368
 20
5.3851000106702029
 30
0.0
 40
0.068
  0
CIRCLE
  5
10813E
  8
PARTH
 10
3.2741507328488368
 20
5.3851000106702029
 30
0.0
 40
0.082
  0
ENDSEC
  0
EOF
