  0
SECTION
  2
HEADER
  9
$ACADVER
  1
AC1009
  9
$INSBASE
 10
0.0
 20
0.0
 30
0.0
  9
$EXTMIN
 10
-0.2694571630065887
 20
-1.1971297631386759
 30
-0.0000000000000154
  9
$EXTMAX
 10
7.2672425737588782
 20
5.6840491656586032
 30
0.0000000000000151
  9
$LIMMIN
 10
0.0
 20
0.0
  9
$LIMMAX
 10
12.0
 20
9.0
  9
$ORTHOMODE
 70
     1
  9
$REGENMODE
 70
     1
  9
$FILLMODE
 70
     1
  9
$QTEXTMODE
 70
     0
  9
$MIRRTEXT
 70
     1
  9
$DRAGMODE
 70
     2
  9
$LTSCALE
 40
0.5
  9
$OSMODE
 70
     5
  9
$ATTMODE
 70
     1
  9
$TEXTSIZE
 40
0.156
  9
$TRACEWID
 40
0.05
  9
$TEXTSTYLE
  7
ROMANS
  9
$CLAYER
  8
BT-1W-BODY
  9
$CELTYPE
  6
BYLAYER
  9
$CECOLOR
 62
   256
  9
$DIMSCALE
 40
0.5
  9
$DIMASZ
 40
0.18
  9
$DIMEXO
 40
0.0625
  9
$DIMDLI
 40
0.38
  9
$DIMRND
 40
0.0
  9
$DIMDLE
 40
0.0
  9
$DIMEXE
 40
0.18
  9
$DIMTP
 40
0.0
  9
$DIMTM
 40
0.0
  9
$DIMTXT
 40
0.156
  9
$DIMCEN
 40
0.09
  9
$DIMTSZ
 40
0.0
  9
$DIMTOL
 70
     0
  9
$DIMLIM
 70
     0
  9
$DIMTIH
 70
     1
  9
$DIMTOH
 70
     1
  9
$DIMSE1
 70
     0
  9
$DIMSE2
 70
     0
  9
$DIMTAD
 70
     0
  9
$DIMZIN
 70
     4
  9
$DIMBLK
  1

  9
$DIMASO
 70
     1
  9
$DIMSHO
 70
     1
  9
$DIMPOST
  1

  9
$DIMAPOST
  1

  9
$DIMALT
 70
     0
  9
$DIMALTD
 70
     2
  9
$DIMALTF
 40
25.399999999999999
  9
$DIMLFAC
 40
1.0
  9
$DIMTOFL
 70
     0
  9
$DIMTVP
 40
0.0
  9
$DIMTIX
 70
     0
  9
$DIMSOXD
 70
     0
  9
$DIMSAH
 70
     0
  9
$DIMBLK1
  1

  9
$DIMBLK2
  1

  9
$DIMSTYLE
  2
STANDARD
  9
$DIMCLRD
 70
   256
  9
$DIMCLRE
 70
   256
  9
$DIMCLRT
 70
   256
  9
$DIMTFAC
 40
1.0
  9
$DIMGAP
 40
0.09
  9
$LUNITS
 70
     2
  9
$LUPREC
 70
     4
  9
$SKETCHINC
 40
0.1
  9
$FILLETRAD
 40
0.0
  9
$AUNITS
 70
     0
  9
$AUPREC
 70
     2
  9
$MENU
  1
acad
  9
$ELEVATION
 40
0.0
  9
$PELEVATION
 40
0.0
  9
$THICKNESS
 40
0.0
  9
$LIMCHECK
 70
     0
  9
$BLIPMODE
 70
     0
  9
$CHAMFERA
 40
0.0
  9
$CHAMFERB
 40
0.0
  9
$SKPOLY
 70
     0
  9
$TDCREATE
 40
2452957.4733315161
  9
$TDUPDATE
 40
2453193.422717372
  9
$TDINDWG
 40
0.0491965162
  9
$TDUSRTIMER
 40
0.0491957986
  9
$USRTIMER
 70
     1
  9
$ANGBASE
 50
0.0
  9
$ANGDIR
 70
     0
  9
$PDMODE
 70
     0
  9
$PDSIZE
 40
0.0
  9
$PLINEWID
 40
0.0
  9
$COORDS
 70
     0
  9
$SPLFRAME
 70
     0
  9
$SPLINETYPE
 70
     6
  9
$SPLINESEGS
 70
     8
  9
$ATTDIA
 70
     0
  9
$ATTREQ
 70
     1
  9
$HANDLING
 70
 12289
  9
$HANDSEED
  5
1086A1
  9
$SURFTAB1
 70
    15
  9
$SURFTAB2
 70
    15
  9
$SURFTYPE
 70
     6
  9
$SURFU
 70
     6
  9
$SURFV
 70
     6
  9
$UCSNAME
  2
TOP
  9
$UCSORG
 10
0.0
 20
0.0
 30
0.0
  9
$UCSXDIR
 10
1.0
 20
0.0
 30
0.0
  9
$UCSYDIR
 10
0.0
 20
1.0
 30
0.0
  9
$PUCSNAME
  2

  9
$PUCSORG
 10
0.0
 20
0.0
 30
0.0
  9
$PUCSXDIR
 10
1.0
 20
0.0
 30
0.0
  9
$PUCSYDIR
 10
0.0
 20
1.0
 30
0.0
  9
$USERI1
 70
     0
  9
$USERI2
 70
     0
  9
$USERI3
 70
     0
  9
$USERI4
 70
     0
  9
$USERI5
 70
     0
  9
$USERR1
 40
0.0
  9
$USERR2
 40
0.0
  9
$USERR3
 40
0.0
  9
$USERR4
 40
0.0
  9
$USERR5
 40
0.0
  9
$WORLDVIEW
 70
     1
  9
$SHADEDGE
 70
     3
  9
$SHADEDIF
 70
    70
  9
$TILEMODE
 70
     1
  9
$MAXACTVP
 70
    15
  9
$PLIMCHECK
 70
     0
  9
$PEXTMIN
 10
1.0000000000000000E+020
 20
1.0000000000000000E+020
 30
1.0000000000000000E+020
  9
$PEXTMAX
 10
-1.0000000000000000E+020
 20
-1.0000000000000000E+020
 30
-1.0000000000000000E+020
  9
$PLIMMIN
 10
0.0
 20
0.0
  9
$PLIMMAX
 10
12.0
 20
9.0
  9
$UNITMODE
 70
     0
  9
$VISRETAIN
 70
     0
  9
$PLINEGEN
 70
     0
  9
$PSLTSCALE
 70
     1
  0
ENDSEC
  0
SECTION
  2
TABLES
  0
TABLE
  2
VPORT
 70
     5
  0
VPORT
  2
*ACTIVE
 70
     0
 10
0.0
 20
0.0
 11
1.0
 21
1.0
 12
1.362184567433224
 22
4.4901058531371731
 13
0.0
 23
0.0
 14
1.0
 24
1.0
 15
0.0
 25
0.0
 16
0.0
 26
0.0
 36
1.0
 17
2.1367081379429198
 27
-2.2466461518772092
 37
1.552034160738883
 40
6.948203398882967
 41
1.7560975609756091
 42
50.0
 43
0.0
 44
0.0
 50
0.0
 51
0.0
 71
     0
 72
   100
 73
     1
 74
     0
 75
     0
 76
     0
 77
     0
 78
     0
  0
ENDTAB
  0
TABLE
  2
LTYPE
 70
    21
  0
LTYPE
  2
CONTINUOUS
 70
     0
  3
Solid line
 72
    65
 73
     0
 40
0.0
  0
LTYPE
  2
HIDDEN
 70
     0
  3
__ __ __ __ __ __ __ __ __ __ __ __ __ __ __ __
 72
    65
 73
     2
 40
0.375
 49
0.25
 49
-0.125
  0
LTYPE
  2
CENTER
 70
     0
  3
____ _ ____ _ ____ _ ____ _ ____ _ ____ _ ____ 
 72
    65
 73
     4
 40
2.0
 49
1.25
 49
-0.25
 49
0.25
 49
-0.25
  0
LTYPE
  2
CENTER2
 70
     0
  3
___ _ ___ _ ___ _ ___ _ ___ _ ___ _ ___ _ ___ _
 72
    65
 73
     4
 40
1.125
 49
0.75
 49
-0.125
 49
0.125
 49
-0.125
  0
LTYPE
  2
PHANTOM
 70
     0
  3
______  __  __  ______  __  __  ______  __  __ 
 72
    65
 73
     6
 40
2.5
 49
1.25
 49
-0.25
 49
0.25
 49
-0.25
 49
0.25
 49
-0.25
  0
ENDTAB
  0
TABLE
  2
LAYER
 70
    31
  0
LAYER
  2
0
 70
     0
 62
     7
  6
CONTINUOUS
  0
LAYER
  2
PART
 70
     0
 62
     3
  6
CONTINUOUS
  0
LAYER
  2
C
 70
     0
 62
     2
  6
CENTER
  0
LAYER
  2
TEXT
 70
     0
 62
     7
  6
CONTINUOUS
  0
LAYER
  2
CI
 70
     0
 62
     8
  6
CONTINUOUS
  0
LAYER
  2
HID
 70
     0
 62
     4
  6
HIDDEN
  0
LAYER
  2
BT-1W-BODY
 70
     0
 62
   253
  6
CONTINUOUS
  0
LAYER
  2
B-1W-JAW
 70
     0
 62
    40
  6
CONTINUOUS
  0
LAYER
  2
B-1W-CLEVIS
 70
     0
 62
    30
  6
CONTINUOUS
  0
ENDTAB
  0
TABLE
  2
STYLE
 70
    11
  0
STYLE
  2
STANDARD
 70
     0
 40
0.0
 41
0.8
 50
0.0
 71
     0
 42
0.2067340150288407
  3
SIMPLEX.SHX
  4

  0
STYLE
  2
ROMANS
 70
     0
 40
0.0
 41
1.0
 50
0.0
 71
     0
 42
0.156
  3
romans.shx
  4

  0
STYLE
  2
ADESK1
 70
     0
 40
0.0
 41
1.0
 50
0.0
 71
     0
 42
0.156
  3
romans.shx
  4

  0
ENDTAB
  0
TABLE
  2
VIEW
 70
     1
  0
VIEW
  2
LL
 70
     0
 40
9.8243439384828406
 10
1.4685819233133679
 20
0.0606082936169221
 41
11.60077376152519
 11
0.6123724356957946
 21
-0.6123724356957946
 31
0.5
 12
2.1367081379429198
 22
-2.2466461518772092
 32
1.552034160738883
 42
50.0
 43
-5.8312182741116763
 44
-5.8312182741116763
 50
0.0
 71
     0
  0
ENDTAB
  0
TABLE
  2
UCS
 70
     6
  0
UCS
  2
FRONT
 70
     0
 10
0.0
 20
0.0
 30
0.0
 11
1.0
 21
0.0
 31
0.0
 12
0.0
 22
0.0
 32
1.0
  0
UCS
  2
RSIDE
 70
     0
 10
0.0
 20
0.0
 30
0.0
 11
0.0
 21
1.0
 31
0.0
 12
0.0
 22
0.0
 32
1.0
  0
UCS
  2
LSIDE
 70
     0
 10
0.0
 20
0.0
 30
0.0
 11
0.0
 21
-1.0
 31
0.0
 12
0.0
 22
0.0
 32
1.0
  0
UCS
  2
BOTTOM
 70
     0
 10
0.0
 20
0.0
 30
0.0
 11
1.0
 21
0.0
 31
0.0
 12
0.0
 22
-1.0
 32
0.0
  0
UCS
  2
TOP
 70
     0
 10
0.0
 20
0.0
 30
0.0
 11
1.0
 21
0.0
 31
0.0
 12
0.0
 22
1.0
 32
0.0
  0
UCS
  2
BORDER
 70
     0
 10
0.0
 20
0.0
 30
0.0
 11
0.7071067811865476
 21
0.7071067811865476
 31
0.0
 12
-0.3535533905932738
 22
0.3535533905932738
 32
0.8660254037844385
  0
ENDTAB
  0
TABLE
  2
APPID
 70
     5
  0
APPID
  2
ACAD
 70
     0
  0
APPID
  2
AD_DRAW
 70
     0
  0
APPID
  2
DESIGNERASSEMBLIES
 70
     0
  0
APPID
  2
MCAD_NO_VIS
 70
     0
  0
APPID
  2
ASURF_PCURVE_APPNAME
 70
     0
  0
ENDTAB
  0
TABLE
  2
DIMSTYLE
 70
     5
  0
DIMSTYLE
  2
STANDARD
 70
     0
  3

  4

  5

  6

  7

 40
0.5
 41
0.18
 42
0.0625
 43
0.38
 44
0.18
 45
0.0
 46
0.0
 47
0.0
 48
0.0
140
0.156
141
0.09
142
0.0
143
25.399999999999999
144
1.0
145
0.0
146
1.0
147
0.09
 71
     0
 72
     0
 73
     1
 74
     1
 75
     0
 76
     0
 77
     0
 78
     4
170
     0
171
     2
172
     0
173
     0
174
     0
175
     0
176
   256
177
   256
178
   256
  0
ENDTAB
  0
ENDSEC
  0
SECTION
  2
BLOCKS
  0
BLOCK
  8
0
  2
$MODEL_SPACE
 70
     0
 10
0.0
 20
0.0
 30
0.0
  3
$MODEL_SPACE
  1

  0
ENDBLK
  5
1069DE
  8
0
  0
BLOCK
 67
     1
  8
0
  2
$PAPER_SPACE
 70
     0
 10
0.0
 20
0.0
 30
0.0
  3
$PAPER_SPACE
  1

  0
ENDBLK
  5
1069DC
 67
     1
  8
0
  0
BLOCK
  8
0
  2
*U1
 70
     1
 10
0.0
 20
0.0
 30
0.0
  3
*U1
  1

  0
ENDBLK
  5
106A2B
  8
0
  0
BLOCK
  8
0
  2
B-1W-C
 70
     0
 10
0.0
 20
0.0
 30
0.0
  3
B-1W-C
  1

  0
LINE
  5
107C0C
  8
B-1W-CLEVIS
  6
HIDDEN
 10
7.865268665519725
 20
5.2617364465099552
 30
0.0
 11
7.865268665519725
 21
4.7017364465099547
 31
0.0
  0
LINE
  5
107C0D
  8
B-1W-CLEVIS
  6
HIDDEN
 10
8.0542686655197251
 20
5.2617364465099552
 30
0.0
 11
8.0542686655197251
 21
4.7017364465099547
 31
0.0
  0
ARC
  5
107C0E
  8
B-1W-CLEVIS
 10
8.1801686655197248
 20
4.9521364465099538
 30
0.0
 40
0.0629
 50
90.0
 51
270.0
  0
ARC
  5
107C0F
  8
B-1W-CLEVIS
 10
7.7393686655197236
 20
4.9521364465099538
 30
0.0
 40
0.0629
 50
270.0
 51
90.0
  0
LINE
  5
107C10
  8
B-1W-CLEVIS
 10
8.4597686655197251
 20
4.8892364465099538
 30
0.0
 11
8.1801686655197248
 21
4.8892364465099538
 31
0.0
  0
LINE
  5
107C11
  8
B-1W-CLEVIS
 10
8.4597686655197251
 20
4.8267364465099538
 30
0.0
 11
8.3347686655197251
 21
4.7017364465099538
 31
0.0
  0
LINE
  5
107C12
  8
B-1W-CLEVIS
 10
8.3347686655197251
 20
4.7017364465099538
 30
0.0
 11
7.5847686655197251
 21
4.7017364465099538
 31
0.0
  0
LINE
  5
107C13
  8
B-1W-CLEVIS
 10
7.7393686655197236
 20
4.8892364465099538
 30
0.0
 11
7.4597686655197251
 21
4.8892364465099538
 31
0.0
  0
LINE
  5
107C14
  8
B-1W-CLEVIS
 10
7.4597686655197251
 20
4.8267364465099538
 30
0.0
 11
7.4597686655197251
 21
4.8892364465099538
 31
0.0
  0
LINE
  5
107C15
  8
B-1W-CLEVIS
 10
7.4597686655197251
 20
4.8267364465099538
 30
0.0
 11
7.5847686655197251
 21
4.7017364465099538
 31
0.0
  0
LINE
  5
107C16
  8
B-1W-CLEVIS
 10
8.4597686655197251
 20
4.8892364465099538
 30
0.0
 11
8.4597686655197251
 21
4.8267364465099538
 31
0.0
  0
LINE
  5
107C17
  8
B-1W-CLEVIS
 10
8.4597686655197251
 20
5.0150364465099537
 30
0.0
 11
8.1801686655197248
 21
5.0150364465099537
 31
0.0
  0
LINE
  5
107C18
  8
B-1W-CLEVIS
 10
8.3347686655197251
 20
5.2617364465099552
 30
0.0
 11
8.4597686655197251
 21
5.1367364465099552
 31
0.0
  0
LINE
  5
107C19
  8
B-1W-CLEVIS
 10
7.5847686655197251
 20
5.2617364465099552
 30
0.0
 11
8.3347686655197251
 21
5.2617364465099552
 31
0.0
  0
LINE
  5
107C1A
  8
B-1W-CLEVIS
 10
7.4597686655197251
 20
5.0150364465099537
 30
0.0
 11
7.4597686655197251
 21
5.1367364465099552
 31
0.0
  0
LINE
  5
107C1B
  8
B-1W-CLEVIS
 10
7.7393686655197236
 20
5.0150364465099537
 30
0.0
 11
7.4597686655197251
 21
5.0150364465099537
 31
0.0
  0
LINE
  5
107C1C
  8
B-1W-CLEVIS
 10
7.5847686655197251
 20
5.2617364465099552
 30
0.0
 11
7.4597686655197251
 21
5.1367364465099552
 31
0.0
  0
LINE
  5
107C1D
  8
B-1W-CLEVIS
 10
8.4597686655197251
 20
5.1367364465099552
 30
0.0
 11
8.4597686655197251
 21
5.0150364465099537
 31
0.0
  0
ENDBLK
  5
107C1F
  8
0
  0
BLOCK
  8
0
  2
JAW-WH
 70
     0
 10
0.0
 20
0.0
 30
0.0
  3
JAW-WH
  1

  0
LINE
  5
107C37
  8
B-1W-JAW
 10
4.629933029247856
 20
10.01412072747153
 30
0.0
 11
4.6299330292478569
 21
8.1391207274715356
 31
0.0
  0
LINE
  5
107C38
  8
B-1W-JAW
 10
4.879933029247856
 20
10.01412072747153
 30
0.0
 11
4.879933029247856
 21
8.5206609710678425
 31
0.0
  0
ARC
  5
107C39
  8
B-1W-JAW
 10
5.108933029247857
 20
7.9101207274715346
 30
0.0
 40
0.1875
 50
223.76797804655899
 51
43.767978046558923
  0
CIRCLE
  5
107C3A
  8
B-1W-JAW
 10
5.108933029247857
 20
7.9101207274715346
 30
0.0
 40
0.0625
  0
LINE
  5
107C3B
  8
B-1W-JAW
 10
4.629933029247856
 20
8.1391207274715356
 30
0.0
 11
4.9735304768298541
 21
7.7804195370425742
 31
0.0
  0
ARC
  5
107C3C
  8
B-1W-JAW
 10
5.129933029247856
 20
8.5206609710678425
 30
0.0
 40
0.25
 50
180.0
 51
223.76797804655891
  0
LINE
  5
107C3D
  8
B-1W-JAW
 10
4.9493962926905031
 20
8.3477260504959112
 30
0.0
 11
5.2443355816658839
 21
8.0398219179004702
 31
0.0
  0
LINE
  5
107C3E
  8
B-1W-JAW
  6
HIDDEN
 10
4.7359178959640049
 20
8.0284770130723881
 30
0.0
 11
5.0067230008000383
 21
8.2878793939302913
 31
0.0
  0
CIRCLE
  5
107C3F
  8
B-1W-JAW
 10
4.7549330292478569
 20
8.2641207274715356
 30
0.0
 40
0.0625
  0
LINE
  5
107C40
  8
B-1W-JAW
  6
HIDDEN
 10
4.8799330292478569
 20
9.1626207274715359
 30
0.0
 11
4.629933029247856
 21
9.1626207274715359
 31
0.0
  0
LINE
  5
107C41
  8
B-1W-JAW
  6
HIDDEN
 10
4.8799330292478569
 20
9.3656207274715371
 30
0.0
 11
4.629933029247856
 21
9.3656207274715353
 31
0.0
  0
LINE
  5
107C42
  8
B-1W-JAW
  6
HIDDEN
 10
4.879933029247856
 20
9.6626207274715359
 30
0.0
 11
4.6299330292478569
 21
9.6626207274715359
 31
0.0
  0
LINE
  5
107C43
  8
B-1W-JAW
  6
HIDDEN
 10
4.8799330292478569
 20
9.8656207274715353
 30
0.0
 11
4.629933029247856
 21
9.8656207274715353
 31
0.0
  0
LINE
  5
107C44
  8
B-1W-JAW
 10
4.629933029247856
 20
10.01412072747153
 30
0.0
 11
4.8799330292478569
 21
10.01412072747153
 31
0.0
  0
ENDBLK
  5
107C46
  8
0
  0
BLOCK
  8
0
  2
B-1CLOSED
 70
     0
 10
0.0
 20
0.0
 30
0.0
  3
B-1CLOSED
  1

  0
LINE
  5
107C48
  8
B-1W-JAW
  6
HIDDEN
 10
4.5138677375276952
 20
0.3456698858660783
 30
0.0
 11
4.8574651851096924
 21
-0.0130313045628832
 31
0.0
  0
LINE
  5
107C49
  8
B-1W-JAW
  6
HIDDEN
 10
4.7638677375276961
 20
1.3691698858660779
 30
0.0
 11
4.5138677375276952
 21
1.3691698858660779
 31
0.0
  0
LINE
  5
107C4A
  8
B-1W-JAW
  6
HIDDEN
 10
4.7638677375276961
 20
1.5721698858660791
 30
0.0
 11
4.5138677375276952
 21
1.5721698858660771
 31
0.0
  0
LINE
  5
107C4B
  8
B-1W-JAW
  6
HIDDEN
 10
4.7638677375276952
 20
1.8691698858660779
 30
0.0
 11
4.5138677375276961
 21
1.8691698858660779
 31
0.0
  0
LINE
  5
107C4C
  8
B-1W-JAW
  6
HIDDEN
 10
4.7638677375276961
 20
2.0721698858660771
 30
0.0
 11
4.5138677375276952
 21
2.0721698858660771
 31
0.0
  0
LINE
  5
107C4D
  8
B-1W-JAW
  6
HIDDEN
 10
4.5138677375276952
 20
2.2206698858660778
 30
0.0
 11
4.7638677375276961
 21
2.2206698858660778
 31
0.0
  0
LINE
  5
107C4E
  8
B-1W-JAW
  6
HIDDEN
 10
4.5138677375276952
 20
2.2206698858660778
 30
0.0
 11
4.5138677375276961
 21
0.3456698858660783
 31
0.0
  0
ARC
  5
107C4F
  8
B-1W-JAW
  6
HIDDEN
 10
4.9928677375276962
 20
0.1166698858660782
 30
0.0
 40
0.1875
 50
223.76797804655899
 51
43.767978046558909
  0
ARC
  5
107C50
  8
B-1W-JAW
  6
HIDDEN
 10
5.7848677375276942
 20
0.1166698858660906
 30
0.0
 40
0.1875
 50
136.23202195344101
 51
316.23202195344089
  0
LINE
  5
107C51
  8
B-1W-JAW
  6
HIDDEN
 10
6.2638677375276952
 20
0.3456698858660907
 30
0.0
 11
5.920270289945698
 21
-0.0130313045628707
 31
0.0
  0
LINE
  5
107C52
  8
B-1W-JAW
  6
HIDDEN
 10
4.7638677375276952
 20
2.2206698858660778
 30
0.0
 11
4.7638677375276952
 21
0.7272101294623852
 31
0.0
  0
LINE
  5
107C53
  8
B-1W-JAW
  6
HIDDEN
 10
6.2638677375276952
 20
2.2206698858660898
 30
0.0
 11
6.2638677375276943
 21
0.3456698858660907
 31
0.0
  0
LINE
  5
107C54
  8
B-1W-JAW
  6
HIDDEN
 10
6.0138677375276952
 20
2.2206698858660898
 30
0.0
 11
6.0138677375276952
 21
0.7272101294623976
 31
0.0
  0
ARC
  5
107C55
  8
B-1W-JAW
  6
HIDDEN
 10
5.0138677375276952
 20
0.7272101294623852
 30
0.0
 40
0.25
 50
180.0
 51
223.76797804655891
  0
LINE
  5
107C56
  8
B-1W-JAW
  6
HIDDEN
 10
4.8333310009703414
 20
0.5542752088904539
 30
0.0
 11
5.1282702899457231
 21
0.2463710762950146
 31
0.0
  0
ARC
  5
107C57
  8
B-1W-JAW
  6
HIDDEN
 10
5.7638677375276952
 20
0.7272101294623976
 30
0.0
 40
0.25
 50
316.23202195344101
 51
0.0
  0
LINE
  5
107C58
  8
B-1W-JAW
  6
HIDDEN
 10
5.944404474085049
 20
0.5542752088904664
 30
0.0
 11
5.6494651851096673
 21
0.2463710762950271
 31
0.0
  0
LINE
  5
107C59
  8
B-1W-JAW
  6
HIDDEN
 10
6.0138677375276943
 20
1.369169885866091
 30
0.0
 11
6.2638677375276952
 21
1.369169885866091
 31
0.0
  0
LINE
  5
107C5A
  8
B-1W-JAW
  6
HIDDEN
 10
6.0138677375276943
 20
1.572169885866092
 30
0.0
 11
6.2638677375276952
 21
1.57216988586609
 31
0.0
  0
LINE
  5
107C5B
  8
B-1W-JAW
  6
HIDDEN
 10
6.0138677375276952
 20
1.869169885866091
 30
0.0
 11
6.2638677375276943
 21
1.869169885866091
 31
0.0
  0
LINE
  5
107C5C
  8
B-1W-JAW
  6
HIDDEN
 10
6.0138677375276943
 20
2.07216988586609
 30
0.0
 11
6.2638677375276952
 21
2.07216988586609
 31
0.0
  0
LINE
  5
107C5D
  8
B-1W-JAW
  6
HIDDEN
 10
6.2638677375276952
 20
2.2206698858660898
 30
0.0
 11
6.0138677375276943
 21
2.2206698858660898
 31
0.0
  0
ENDBLK
  5
107C5F
  8
0
  0
BLOCK
  8
0
  2
1W_OPEN
 70
     0
 10
0.0
 20
0.0
 30
0.0
  3
1W_OPEN
  1

  0
INSERT
  5
107C61
  8
B-1W-JAW
  2
JAW-WH
 10
3.293823479146103
 20
-5.6470745307359742
 30
0.0
 41
-1.0
 50
280.0
  0
INSERT
  5
107C62
  8
B-1W-JAW
  2
JAW-WH
 10
16.419592896717429
 20
-5.6470745307359707
 30
0.0
 50
80.0
  0
ENDBLK
  5
107C64
  8
0
  0
BLOCK
  8
0
  2
CEN-MRK
 70
     0
 10
0.0
 20
0.0
 30
0.0
  3
CEN-MRK
  1

  0
LINE
  5
107C66
  8
C
 10
0.0
 20
0.5
 30
0.0
 11
0.0
 21
-0.5000000000000001
 31
0.0
  0
LINE
  5
107C67
  8
C
 10
0.5000000000000002
 20
0.0
 30
0.0
 11
-0.5
 21
0.0
 31
0.0
  0
ENDBLK
  5
107C69
  8
0
  0
BLOCK
  8
0
  2
*U32
 70
     1
 10
0.0
 20
0.0
 30
0.0
  3
*U32
  1

  0
SOLID
  5
10864A
  8
BT-1W-BODY
  6
CONTINUOUS
 10
3.1242514677657178
 20
2.0927531569130262
 30
0.0
 11
2.8852689764891841
 21
2.0615031569130271
 31
0.0
 12
2.9889349984243991
 22
2.0615031569130271
 32
0.0
 13
2.9889349984243991
 23
2.0615031569130271
 33
0.0
210
0.0
220
0.0
230
1.0
  0
SOLID
  5
10864B
  8
BT-1W-BODY
  6
CONTINUOUS
 10
3.1242514677657178
 20
2.0927531569130262
 30
0.0
 11
2.9889349984243991
 21
2.0615031569130271
 31
0.0
 12
2.9889349984243991
 22
2.0146281569130249
 32
0.0
 13
2.9889349984243991
 23
2.0146281569130249
 33
0.0
210
0.0
220
0.0
230
1.0
  0
SOLID
  5
10864C
  8
BT-1W-BODY
  6
CONTINUOUS
 10
2.9889349984244009
 20
2.1240031569130271
 30
0.0
 11
2.8852689764891841
 21
2.0615031569130271
 31
0.0
 12
3.1242514677657178
 22
2.0927531569130262
 32
0.0
 13
3.1242514677657178
 23
2.0927531569130262
 33
0.0
210
0.0
220
0.0
230
1.0
  0
SOLID
  5
10864D
  8
BT-1W-BODY
  6
CONTINUOUS
 10
2.8852689764891841
 20
2.124003156913028
 30
0.0
 11
2.8852689764891841
 21
2.0615031569130271
 31
0.0
 12
2.9889349984244009
 22
2.1240031569130271
 32
0.0
 13
2.9889349984244009
 23
2.1240031569130271
 33
0.0
  0
SOLID
  5
10864E
  8
BT-1W-BODY
  6
CONTINUOUS
 10
2.9889349984243991
 20
2.1708781569130271
 30
0.0
 11
2.9889349984244009
 21
2.1240031569130271
 31
0.0
 12
3.1242514677657178
 22
2.0927531569130262
 32
0.0
 13
3.1242514677657178
 23
2.0927531569130262
 33
0.0
210
0.0
220
0.0
230
1.0
  0
ENDBLK
  5
108650
  8
0
  0
BLOCK
  8
0
  2
*X33
 70
     1
 10
0.0
 20
0.0
 30
0.0
  3
*X33
  1

  0
LINE
  5
108666
  8
0
 62
     0
 10
6.7730899236340472
 20
4.9338007624720328
 30
-0.0000000000000013
 11
6.7958876615263186
 21
4.956598500364306
 31
-0.0000000000000013
  0
LINE
  5
108667
  8
0
 62
     0
 10
6.7093825394757332
 20
4.9338007624720319
 30
-0.0000000000000013
 11
6.7734650130482024
 21
4.997883236044502
 31
-0.0000000000000013
  0
LINE
  5
108668
  8
0
 62
     0
 10
6.7046941137407909
 20
4.9928197208954037
 30
-0.0000000000000013
 11
6.734742930693562
 21
5.0228685378481748
 31
-0.0000000000000013
  0
LINE
  5
108669
  8
0
 62
     0
 10
6.7624720262921461
 20
4.9338007624720328
 30
-0.0000000000000013
 11
6.7934448124790787
 21
4.9647735486589681
 31
-0.0000000000000013
  0
LINE
  5
10866A
  8
0
 62
     0
 10
6.7046941137407909
 20
4.9397302340789926
 30
-0.0000000000000013
 11
6.7681312630534247
 21
5.0031673833916273
 31
-0.0000000000000013
  0
LINE
  5
10866B
  8
0
 62
     0
 10
6.7046941137407909
 20
5.0034376182373057
 30
-0.0000000000000013
 11
6.7264943849348686
 21
5.0252378894313843
 31
-0.0000000000000013
  0
LINE
  5
10866C
  8
0
 62
     0
 10
6.7518541288901801
 20
4.9338007624720328
 30
-0.0000000000000013
 11
6.7904189782880087
 21
4.9723656118698623
 31
-0.0000000000000013
  0
LINE
  5
10866D
  8
0
 62
     0
 10
6.7046941137407909
 20
4.9503481314809568
 30
-0.0000000000000013
 11
6.7623715183105721
 21
5.0080255360507371
 31
-0.0000000000000013
  0
LINE
  5
10866E
  8
0
 62
     0
 10
6.7046941137407909
 20
5.0140555156392699
 30
-0.0000000000000013
 11
6.7175553553112097
 21
5.0269167572096887
 31
-0.0000000000000013
  0
LINE
  5
10866F
  8
0
 62
     0
 10
6.7412362315482763
 20
4.9338007624720328
 30
-0.0000000000000013
 11
6.7868726715151197
 21
4.979437202438878
 31
-0.0000000000000013
  0
LINE
  5
108670
  8
0
 62
     0
 10
6.7046941137407909
 20
4.9609660288228623
 30
-0.0000000000000013
 11
6.7561769251683312
 21
5.0124488402504017
 31
-0.0000000000000013
  0
LINE
  5
108671
  8
0
 62
     0
 10
6.7046941137407901
 20
5.0246734129811754
 30
-0.0000000000000013
 11
6.7077710892677462
 21
5.0277503885081298
 31
-0.0000000000000013
  0
ENDBLK
  5
108673
  8
0
  0
BLOCK
  8
0
  2
*X34
 70
     1
 10
0.0
 20
0.0
 30
0.0
  3
*X34
  1

  0
LINE
  5
108675
  8
0
 62
     0
 10
6.6818963758485186
 20
4.842607214686506
 30
-0.0000000000000013
 11
6.7046941137407909
 21
4.8654049525787784
 31
-0.0000000000000013
  0
LINE
  5
108676
  8
0
 62
     0
 10
6.6406116401683226
 20
4.8650298631646232
 30
-0.0000000000000013
 11
6.7046941137407909
 21
4.9291123367370906
 31
-0.0000000000000013
  0
LINE
  5
108677
  8
0
 62
     0
 10
6.615626338364649
 20
4.9037519455192617
 30
-0.0000000000000013
 11
6.64567515531742
 21
4.9338007624720319
 31
-0.0000000000000013
  0
LINE
  5
108678
  8
0
 62
     0
 10
6.6737213275538556
 20
4.845050063733745
 30
-0.0000000000000013
 11
6.7046941137407901
 21
4.8760228499206786
 31
-0.0000000000000013
  0
LINE
  5
108679
  8
0
 62
     0
 10
6.6353274928211983
 20
4.870363613159399
 30
-0.0000000000000013
 11
6.698764642133832
 21
4.9338007624720328
 31
-0.0000000000000013
  0
LINE
  5
10867A
  8
0
 62
     0
 10
6.6132569867814404
 20
4.9120004912779551
 30
-0.0000000000000013
 11
6.635057257975518
 21
4.9338007624720319
 31
-0.0000000000000013
  0
LINE
  5
10867B
  8
0
 62
     0
 10
6.6661292643429633
 20
4.8480758979248151
 30
-0.0000000000000013
 11
6.7046941137407909
 21
4.8866407473226436
 31
-0.0000000000000013
  0
LINE
  5
10867C
  8
0
 62
     0
 10
6.6304693401620858
 20
4.8761233579022516
 30
-0.0000000000000013
 11
6.6881467447318661
 21
4.9338007624720319
 31
-0.0000000000000013
  0
LINE
  5
10867D
  8
0
 62
     0
 10
6.6115781190031351
 20
4.920939520901614
 30
-0.0000000000000013
 11
6.624439360573553
 21
4.9338007624720319
 31
-0.0000000000000013
  0
LINE
  5
10867E
  8
0
 62
     0
 10
6.6590576737739466
 20
4.8516222046977049
 30
-0.0000000000000013
 11
6.7046941137407909
 21
4.8972586446645501
 31
-0.0000000000000013
  0
LINE
  5
10867F
  8
0
 62
     0
 10
6.626046035962422
 20
4.8823179510444943
 30
-0.0000000000000013
 11
6.6775288473899623
 21
4.9338007624720328
 31
-0.0000000000000013
  0
LINE
  5
108680
  8
0
 62
     0
 10
6.6107444877046939
 20
4.9307237869450793
 30
-0.0000000000000013
 11
6.6138214632316483
 21
4.9338007624720319
 31
-0.0000000000000013
  0
ENDBLK
  5
108682
  8
0
  0
BLOCK
  8
0
  2
*X35
 70
     1
 10
0.0
 20
0.0
 30
0.0
  3
*X35
  1

  0
LINE
  5
108684
  8
0
 62
     0
 10
6.3068963758485186
 20
5.342607214686506
 30
-0.0000000000000013
 11
6.3296941137407901
 21
5.3654049525787766
 31
-0.0000000000000013
  0
LINE
  5
108685
  8
0
 62
     0
 10
6.2656116401683226
 20
5.3650298631646232
 30
-0.0000000000000013
 11
6.3296941137407901
 21
5.4291123367370897
 31
-0.0000000000000013
  0
LINE
  5
108686
  8
0
 62
     0
 10
6.240626338364649
 20
5.4037519455192617
 30
-0.0000000000000013
 11
6.27067515531742
 21
5.4338007624720319
 31
-0.0000000000000013
  0
LINE
  5
108687
  8
0
 62
     0
 10
6.2987213275538556
 20
5.345050063733745
 30
-0.0000000000000013
 11
6.3296941137407909
 21
5.3760228499206804
 31
-0.0000000000000013
  0
LINE
  5
108688
  8
0
 62
     0
 10
6.2603274928211983
 20
5.370363613159399
 30
-0.0000000000000013
 11
6.3237646421338312
 21
5.4338007624720319
 31
-0.0000000000000013
  0
LINE
  5
108689
  8
0
 62
     0
 10
6.2382569867814404
 20
5.4120004912779551
 30
-0.0000000000000013
 11
6.2600572579755172
 21
5.433800762472031
 31
-0.0000000000000013
  0
LINE
  5
10868A
  8
0
 62
     0
 10
6.2911292643429633
 20
5.3480758979248151
 30
-0.0000000000000013
 11
6.3296941137407901
 21
5.3866407473226428
 31
-0.0000000000000013
  0
LINE
  5
10868B
  8
0
 62
     0
 10
6.2554693401620858
 20
5.3761233579022516
 30
-0.0000000000000013
 11
6.3131467447318661
 21
5.4338007624720319
 31
-0.0000000000000013
  0
LINE
  5
10868C
  8
0
 62
     0
 10
6.2365781190031351
 20
5.420939520901614
 30
-0.0000000000000013
 11
6.249439360573553
 21
5.4338007624720319
 31
-0.0000000000000013
  0
LINE
  5
10868D
  8
0
 62
     0
 10
6.2840576737739466
 20
5.3516222046977049
 30
-0.0000000000000013
 11
6.3296941137407901
 21
5.3972586446645492
 31
-0.0000000000000013
  0
LINE
  5
10868E
  8
0
 62
     0
 10
6.251046035962422
 20
5.3823179510444943
 30
-0.0000000000000013
 11
6.3025288473899623
 21
5.4338007624720328
 31
-0.0000000000000013
  0
LINE
  5
10868F
  8
0
 62
     0
 10
6.2357444877046939
 20
5.4307237869450793
 30
-0.0000000000000013
 11
6.2388214632316483
 21
5.4338007624720319
 31
-0.0000000000000013
  0
ENDBLK
  5
108691
  8
0
  0
BLOCK
  8
0
  2
*X36
 70
     1
 10
0.0
 20
0.0
 30
0.0
  3
*X36
  1

  0
LINE
  5
108693
  8
0
 62
     0
 10
6.3980899236340472
 20
5.4338007624720328
 30
-0.0000000000000013
 11
6.4208876615263186
 21
5.456598500364306
 31
-0.0000000000000013
  0
LINE
  5
108694
  8
0
 62
     0
 10
6.334382539475734
 20
5.4338007624720328
 30
-0.0000000000000013
 11
6.3984650130482024
 21
5.497883236044502
 31
-0.0000000000000013
  0
LINE
  5
108695
  8
0
 62
     0
 10
6.3296941137407909
 20
5.4928197208954037
 30
-0.0000000000000013
 11
6.359742930693562
 21
5.5228685378481748
 31
-0.0000000000000013
  0
LINE
  5
108696
  8
0
 62
     0
 10
6.3874720262921443
 20
5.4338007624720319
 30
-0.0000000000000013
 11
6.4184448124790787
 21
5.4647735486589681
 31
-0.0000000000000013
  0
LINE
  5
108697
  8
0
 62
     0
 10
6.3296941137407909
 20
5.4397302340789926
 30
-0.0000000000000013
 11
6.3931312630534247
 21
5.5031673833916273
 31
-0.0000000000000013
  0
LINE
  5
108698
  8
0
 62
     0
 10
6.3296941137407918
 20
5.5034376182373066
 30
-0.0000000000000013
 11
6.3514943849348686
 21
5.5252378894313843
 31
-0.0000000000000013
  0
LINE
  5
108699
  8
0
 62
     0
 10
6.3768541288901801
 20
5.4338007624720328
 30
-0.0000000000000013
 11
6.4154189782880087
 21
5.4723656118698623
 31
-0.0000000000000013
  0
LINE
  5
10869A
  8
0
 62
     0
 10
6.3296941137407901
 20
5.4503481314809559
 30
-0.0000000000000013
 11
6.3873715183105721
 21
5.5080255360507371
 31
-0.0000000000000013
  0
LINE
  5
10869B
  8
0
 62
     0
 10
6.3296941137407909
 20
5.5140555156392699
 30
-0.0000000000000013
 11
6.3425553553112097
 21
5.5269167572096887
 31
-0.0000000000000013
  0
LINE
  5
10869C
  8
0
 62
     0
 10
6.3662362315482763
 20
5.4338007624720328
 30
-0.0000000000000013
 11
6.4118726715151197
 21
5.479437202438878
 31
-0.0000000000000013
  0
LINE
  5
10869D
  8
0
 62
     0
 10
6.3296941137407901
 20
5.4609660288228623
 30
-0.0000000000000013
 11
6.3811769251683312
 21
5.5124488402504017
 31
-0.0000000000000013
  0
LINE
  5
10869E
  8
0
 62
     0
 10
6.3296941137407901
 20
5.5246734129811754
 30
-0.0000000000000013
 11
6.3327710892677462
 21
5.5277503885081298
 31
-0.0000000000000013
  0
ENDBLK
  5
1086A0
  8
0
  0
ENDSEC
  0
SECTION
  2
ENTITIES
  0
INSERT
  5
107DEB
  8
B-1W-CLEVIS
  2
B-1W-C
 10
-5.733997359957109
 20
-0.7312340998203855
 30
-0.0000000000000003
  0
LINE
  5
107DF5
  8
BT-1W-BODY
 10
5.7671941137407954
 20
-1.1964888018824931
 30
0.0
 11
5.7671941137407954
 21
0.6785111981175067
 31
0.0
  0
LINE
  5
107DF6
  8
BT-1W-BODY
 10
7.2671941137407954
 20
-1.196488801882498
 30
0.0
 11
7.2671941137407954
 21
0.678511198117505
 31
0.0
  0
INSERT
  5
107DF7
  8
B-1W-JAW
  2
1W_OPEN
 10
-7.6310346659344832
 20
3.4631308766059519
 30
0.0
  0
INSERT
  5
107DF8
  8
B-1W-JAW
  2
B-1CLOSED
 10
-3.1631942155304138
 20
3.4631308766059519
 30
0.0
  0
LINE
  5
107DF9
  8
BT-1W-BODY
 10
1.288173521997289
 20
2.99580076247203
 30
0.0
 11
1.4756735219972821
 21
2.99580076247203
 31
0.0
  0
CIRCLE
  5
107DFA
  8
BT-1W-BODY
 10
1.4756735219972821
 20
3.933800762472031
 30
0.0
 40
0.0935
  0
LINE
  5
107DFB
  8
BT-1W-BODY
 10
1.288173521997289
 20
4.1208007624720322
 30
0.0
 11
3.163173521997289
 21
4.1208007624720304
 31
0.0
  0
LINE
  5
107DFC
  8
BT-1W-BODY
 10
5.7671941137407883
 20
-1.1964888018824931
 30
0.0
 11
7.2671941137407883
 21
-1.196488801882498
 31
0.0
  0
POLYLINE
  5
107DFD
  8
BT-1W-BODY
 66
     1
 10
0.0
 20
0.0
 30
0.0
  0
VERTEX
  5
108651
  8
BT-1W-BODY
 10
1.288173521997289
 20
4.1208007624720322
 30
0.0
  0
VERTEX
  5
108652
  8
BT-1W-BODY
 10
1.288173521997289
 20
2.99580076247203
 30
0.0
  0
SEQEND
  5
108653
  8
BT-1W-BODY
  0
POLYLINE
  5
107E08
  8
BT-1W-BODY
 66
     1
 10
0.0
 20
0.0
 30
0.0
  0
VERTEX
  5
108654
  8
BT-1W-BODY
 10
1.4756735219972781
 20
2.99580076247203
 30
0.0
  0
VERTEX
  5
108655
  8
BT-1W-BODY
 10
1.4756735219972821
 20
1.2458007624720331
 30
0.0
  0
VERTEX
  5
108656
  8
BT-1W-BODY
 10
2.9756735219972819
 20
1.2458007624720311
 30
0.0
  0
VERTEX
  5
108657
  8
BT-1W-BODY
 10
2.9756735219972779
 20
2.9958007624720282
 30
0.0
  0
SEQEND
  5
108658
  8
BT-1W-BODY
  0
TEXT
  5
107E09
  8
TEXT
 10
1.680918074163847
 20
-0.5072556891168772
 30
0.0
 40
0.156
  1
BT-1W
  7
ADESK1
  0
INSERT
  5
107E0A
  8
C
  2
CEN-MRK
 10
6.5171941137407874
 20
-0.2589888018825077
 30
0.0
 41
0.5
 42
0.5
 43
0.5
 50
90.0
  0
LINE
  5
107E0B
  8
BT-1W-BODY
 10
7.2671941137407954
 20
0.4910111981174908
 30
0.0
 11
5.7671941137407954
 21
0.4910111981174961
 31
0.0
  0
LINE
  5
107E0C
  8
BT-1W-BODY
 10
5.7671941137407954
 20
0.6785111981175067
 30
0.0
 11
7.2671941137407954
 21
0.6785111981175014
 31
0.0
  0
LINE
  5
107E0D
  8
BT-1W-BODY
 10
5.7671941137407954
 20
-1.0089888018825051
 30
0.0
 11
7.2671941137407883
 21
-1.0089888018825091
 31
0.0
  0
CIRCLE
  5
107E0E
  8
HID
 10
6.5171941137407874
 20
-0.2589888018825077
 30
0.0
 40
0.5985000000000001
  0
CIRCLE
  5
107E0F
  8
BT-1W-BODY
 10
6.5171941137407874
 20
-0.2589888018825077
 30
0.0
 40
0.5615000000000001
  0
CIRCLE
  5
107E10
  8
CI
 10
7.0796941137407874
 20
-0.8214888018825078
 30
0.0
 40
0.0785
  0
CIRCLE
  5
107E11
  8
HID
 10
7.0796941137407874
 20
-0.8214888018825078
 30
0.0
 40
0.0965
  0
INSERT
  5
107E12
  8
C
  2
CEN-MRK
 10
7.0796941137407874
 20
-0.8214888018825078
 30
0.0
 41
0.25
 42
0.25
 43
0.25
 50
90.0
  0
CIRCLE
  5
107E13
  8
CI
 10
7.0796941137407874
 20
0.3035111981174925
 30
0.0
 40
0.0625
  0
INSERT
  5
107E14
  8
C
  2
CEN-MRK
 10
7.0796941137407874
 20
0.3035111981174925
 30
0.0
 41
0.1875
 42
0.1875
 43
0.1875
 50
90.0
  0
INSERT
  5
107E16
  8
C
  2
CEN-MRK
 10
5.9546941137407874
 20
-0.8214888018825075
 30
0.0
 41
0.1875
 42
0.1875
 43
0.1875
 50
90.0
  0
CIRCLE
  5
107E18
  8
CI
 10
5.9546941137407874
 20
-0.8214888018825075
 30
0.0
 40
0.0625
  0
CIRCLE
  5
107E19
  8
CI
 10
5.9546941137407874
 20
0.3035111981174925
 30
0.0
 40
0.0785
  0
CIRCLE
  5
107E1A
  8
HID
 10
5.9546941137407874
 20
0.3035111981174925
 30
0.0
 40
0.0965
  0
INSERT
  5
107E1B
  8
C
  2
CEN-MRK
 10
5.9546941137407874
 20
0.3035111981174925
 30
0.0
 41
0.25
 42
0.25
 43
0.25
 50
90.0
  0
LINE
  5
107E1E
  8
C
 10
2.9756735219972921
 20
3.9338007624720288
 30
0.0
 11
5.1882053187394463
 21
4.323929813913046
 31
0.0
  0
POLYLINE
  5
107E1F
  8
BT-1W-BODY
 66
     1
 10
0.0
 20
0.0
 30
0.0
  0
VERTEX
  5
108659
  8
BT-1W-BODY
 10
3.163173521997289
 20
2.99580076247203
 30
0.0
  0
VERTEX
  5
10865A
  8
BT-1W-BODY
 10
3.163173521997289
 20
4.1208007624720322
 30
0.0
  0
SEQEND
  5
10865B
  8
BT-1W-BODY
  0
INSERT
  5
107E22
  8
C
  2
CEN-MRK
 10
2.7881735219972752
 20
2.62080076247203
 30
0.0
 41
0.25
 42
0.25
 43
0.25
  0
CIRCLE
  5
107E23
  8
BT-1W-BODY
 10
2.7881735219972752
 20
2.62080076247203
 30
0.0
 40
0.0785
  0
CIRCLE
  5
107E24
  8
HID
 10
2.7881735219972752
 20
2.62080076247203
 30
0.0
 40
0.0965
  0
CIRCLE
  5
107E25
  8
BT-1W-BODY
 10
1.663173521997289
 20
2.62080076247203
 30
0.0
 40
0.063
  0
INSERT
  5
107E26
  8
C
  2
CEN-MRK
 10
1.663173521997289
 20
2.62080076247203
 30
0.0
 41
0.1875
 42
0.1875
 43
0.1875
  0
INSERT
  5
107E27
  8
C
  2
CEN-MRK
 10
1.663173521997287
 20
1.87080076247203
 30
0.0
 41
0.25
 42
0.25
 43
0.25
  0
CIRCLE
  5
107E28
  8
BT-1W-BODY
 10
1.663173521997287
 20
1.87080076247203
 30
0.0
 40
0.0785
  0
CIRCLE
  5
107E29
  8
HID
 10
1.663173521997287
 20
1.87080076247203
 30
0.0
 40
0.0965
  0
INSERT
  5
107E2A
  8
C
  2
CEN-MRK
 10
2.788173521997273
 20
1.8708007624720291
 30
0.0
 41
0.1875
 42
0.1875
 43
0.1875
  0
CIRCLE
  5
107E2B
  8
BT-1W-BODY
 10
2.788173521997273
 20
1.8708007624720291
 30
0.0
 40
0.063
  0
LINE
  5
107E2C
  8
BT-1W-BODY
 10
2.9756735219972819
 20
2.9958007624720282
 30
0.0
 11
3.163173521997289
 21
2.9958007624720282
 31
0.0
  0
CIRCLE
  5
107E2D
  8
BT-1W-BODY
 10
2.9756735219972819
 20
3.933800762472031
 30
0.0
 40
0.0935
  0
POLYLINE
  5
107E30
  8
CI
 66
     1
 10
0.0
 20
0.0
 30
0.0
  0
VERTEX
  5
10865C
  8
CI
 10
2.406173521997284
 20
4.5505007624720228
 30
0.0
 42
0.1482728675894313
  0
VERTEX
  5
10865D
  8
CI
 10
2.312313521997285
 20
4.6315007624720232
 30
0.0
  0
VERTEX
  5
10865E
  8
CI
 10
2.1390335219972858
 20
4.6315007624720232
 30
0.0
 42
0.1482728675894313
  0
VERTEX
  5
10865F
  8
CI
 10
2.0451735219972802
 20
4.5505007624720228
 30
0.0
  0
VERTEX
  5
108660
  8
CI
 10
2.0451735219972802
 20
4.5305007624720242
 30
0.0
  0
VERTEX
  5
108661
  8
CI
 10
2.406173521997284
 20
4.5305007624720242
 30
0.0
  0
VERTEX
  5
108662
  8
CI
 10
2.406173521997284
 20
4.5505007624720228
 30
0.0
  0
VERTEX
  5
108663
  8
CI
 10
2.0451735219972802
 20
4.5505007624720228
 30
0.0
  0
SEQEND
  5
108664
  8
CI
  0
INSERT
  5
107E45
  8
C
  2
CEN-MRK
 10
6.3296941137407909
 20
5.4338007624720319
 30
0.0
 41
0.25
 42
0.25
 43
0.25
  0
INSERT
  5
107E46
  8
C
  2
CEN-MRK
 10
6.3296941137407909
 20
4.9338007624720319
 30
0.0
 41
0.25
 42
0.25
 43
0.25
  0
LINE
  5
1080A6
  8
BT-1W-BODY
 10
7.2671941137407954
 20
4.1208007624720304
 30
0.0
 11
7.2671941137407954
 21
1.2458007624720311
 31
0.0
  0
LINE
  5
1080A7
  8
C
 10
7.0171941137407954
 20
1.8231410931204071
 30
0.0
 11
7.0171941137407954
 21
1.6881410931204011
 31
0.0
  0
CIRCLE
  5
1080A8
  8
CI
  6
CONTINUOUS
 10
7.0171941137408016
 20
1.7556410931204041
 30
0.0
 40
0.1020919478781606
  0
CIRCLE
  5
1080A9
  8
HID
 10
7.0171941137408016
 20
1.7556410931204041
 30
0.0
 40
0.1158072694783243
  0
LINE
  5
1080AA
  8
C
 10
6.5171941137407954
 20
1.163405195538354
 30
0.0
 11
6.5171941137407954
 21
4.2447223669427112
 31
0.0
  0
LINE
  5
1080AB
  8
BT-1W-BODY
 10
5.7671941137407954
 20
4.1208007624720304
 30
0.0
 11
5.7671941137407954
 21
1.2458007624720311
 31
0.0
  0
LINE
  5
1080AC
  8
BT-1W-BODY
 10
5.7671941137407954
 20
1.2458007624720311
 30
0.0
 11
7.2671941137407954
 21
1.2458007624720311
 31
0.0
  0
CIRCLE
  5
1080AD
  8
CI
  6
CONTINUOUS
 10
7.0171941137408016
 20
1.7556410931204041
 30
0.0
 40
0.03125
  0
LINE
  5
1080AE
  8
C
 10
6.949694113740799
 20
1.7556410931204041
 30
0.0
 11
7.0846941137407971
 21
1.7556410931204041
 31
0.0
  0
LINE
  5
1080B2
  8
BT-1W-BODY
 10
6.8936941137408061
 20
4.1208007624720304
 30
0.0
 11
7.2671941137407954
 21
4.1208007624720304
 31
0.0
  0
LINE
  5
1080B6
  8
BT-1W-BODY
 10
5.7671941137407954
 20
2.99580076247203
 30
0.0
 11
7.2671941137407954
 21
2.99580076247203
 31
0.0
  0
LINE
  5
1080BB
  8
BT-1W-BODY
 10
5.7671941137407954
 20
4.1208007624720304
 30
0.0
 11
6.140694113740798
 21
4.1208007624720304
 31
0.0
  0
LINE
  5
1080BD
  8
BT-1W-BODY
 10
6.8936941137408061
 20
4.1208007624720304
 30
0.0
 11
6.8936941137408061
 21
3.24580076247203
 31
0.0
  0
LINE
  5
1080BE
  8
C
 10
6.5171941137407954
 20
4.2283039090570469
 30
0.0
 11
6.5171941137407954
 21
3.1770227199476229
 31
0.0
  0
LINE
  5
1080BF
  8
BT-1W-BODY
 10
6.140694113740798
 20
4.1208007624720304
 30
0.0
 11
6.140694113740798
 21
3.2458007624720229
 31
0.0
  0
LINE
  5
1080C3
  8
BT-1W-BODY
 10
6.140694113740798
 20
3.24580076247203
 30
0.0
 11
6.8936941137408061
 21
3.24580076247203
 31
0.0
  0
LINE
  5
1080D2
  8
C
 10
7.0171941137407954
 20
2.7657915827926409
 30
0.0
 11
7.0171941137407954
 21
2.6307915827926429
 31
0.0
  0
LINE
  5
1080D3
  8
C
 10
6.949694113740799
 20
2.6982915827926459
 30
0.0
 11
7.0846941137407971
 21
2.6982915827926459
 31
0.0
  0
CIRCLE
  5
1080D4
  8
CI
  6
CONTINUOUS
 10
7.0171941137408016
 20
2.6982915827926459
 30
0.0
 40
0.03125
  0
CIRCLE
  5
1080D5
  8
CI
  6
CONTINUOUS
 10
7.0171941137408016
 20
2.6982915827926459
 30
0.0
 40
0.1020919478781606
  0
CIRCLE
  5
1080D6
  8
HID
 10
7.0171941137408016
 20
2.6982915827926459
 30
0.0
 40
0.1158072694783243
  0
INSERT
  5
1080DE
  8
C
  2
CEN-MRK
 10
6.7046941137407909
 20
4.9338007624720319
 30
0.0
 41
0.25
 42
0.25
 43
0.25
  0
INSERT
  5
1080DF
  8
C
  2
CEN-MRK
 10
6.7046941137407909
 20
5.4338007624720319
 30
0.0
 41
0.25
 42
0.25
 43
0.25
  0
LINE
  5
10814D
  8
B-1W-JAW
 10
6.8916941137407903
 20
5.6838007624720319
 30
0.0
 11
6.8916941137407903
 21
3.3923007624720318
 31
0.0
  0
LINE
  5
10814E
  8
B-1W-JAW
 10
6.1426941137407871
 20
5.6838007624720319
 30
0.0
 11
6.1426941137407871
 21
3.3923007624720318
 31
0.0
  0
LINE
  5
10814F
  8
B-1W-JAW
 10
6.3671941137407897
 20
3.6981883500485901
 30
0.0
 11
6.6671941137407913
 21
3.6981883500485901
 31
0.0
  0
LINE
  5
108150
  8
B-1W-JAW
 10
6.3671941137407897
 20
3.9575907309064879
 30
0.0
 11
6.6671941137407913
 21
3.9575907309064879
 31
0.0
  0
LINE
  5
108151
  8
B-1W-JAW
 10
6.1426941137407871
 20
3.3923007624720318
 30
0.0
 11
6.3671941137407897
 21
3.3923007624720318
 31
0.0
  0
LINE
  5
108152
  8
B-1W-JAW
 10
6.3671941137407897
 20
3.3923007624720318
 30
0.0
 11
6.3671941137407897
 21
3.9575907309064879
 31
0.0
  0
LINE
  5
108153
  8
B-1W-JAW
 10
6.6671941137407913
 20
3.3923007624720318
 30
0.0
 11
6.6671941137407913
 21
3.9575907309064879
 31
0.0
  0
LINE
  5
108154
  8
B-1W-JAW
 10
6.6671941137407913
 20
3.3923007624720318
 30
0.0
 11
6.8916941137407903
 21
3.3923007624720318
 31
0.0
  0
LINE
  5
108157
  8
B-1W-JAW
 10
6.1426941137407871
 20
5.6838007624720319
 30
0.0
 11
6.8916941137407903
 21
5.6838007624720319
 31
0.0
  0
LINE
  5
10815A
  8
B-1W-JAW
  6
HIDDEN
 10
6.7516941137407889
 20
4.4178007624720337
 30
0.0
 11
6.8916941137407903
 21
4.4178007624720337
 31
0.0
  0
LINE
  5
10815B
  8
B-1W-JAW
  6
HIDDEN
 10
6.7516941137407889
 20
4.3248007624720337
 30
0.0
 11
6.8916941137407903
 21
4.3248007624720337
 31
0.0
  0
LINE
  5
10815C
  8
B-1W-JAW
  6
HIDDEN
 10
6.7248473262234754
 20
4.3713007624720381
 30
0.0
 11
6.7516941137407889
 21
4.3248007624720337
 31
0.0
  0
LINE
  5
10815D
  8
B-1W-JAW
  6
HIDDEN
 10
6.7248473262234754
 20
4.3713007624720381
 30
0.0
 11
6.7516941137407889
 21
4.4178007624720337
 31
0.0
  0
LINE
  5
10815E
  8
B-1W-JAW
  6
HIDDEN
 10
6.7516941137407889
 20
4.4178007624720337
 30
0.0
 11
6.7516941137407889
 21
4.3248007624720337
 31
0.0
  0
CIRCLE
  5
10815F
  8
B-1W-JAW
 10
6.7046941137407909
 20
5.4338007624720319
 30
0.0
 40
0.1015
  0
CIRCLE
  5
108161
  8
B-1W-JAW
 10
6.3296941137407909
 20
4.9338007624720319
 30
0.0
 40
0.1015
  0
INSERT
  5
10816D
  8
B-1W-JAW
  6
CONTINUOUS
  2
*X33
 10
0.0
 20
0.0
 30
0.0
1001
ACAD
1000
HATCH
1002
{
1070
    19
1000
ANSI34
1040
0.0600638978
1040
0.0
1000
ASC_BOUNDS
1070
     1
1070
     1
1070
     3
1005
108170
1005
108171
1005
10816F
1000
ASC_SEEDPOINT
1011
6.756749377679891
1021
0.0
1031
0.0
1021
4.9602563957304611
1031
-0.0000000000000013
1000
R14_HATCH_DATA
1000
10816D
1011
1.0
1021
0.0
1031
0.0
1021
0.0
1031
0.0
1011
0.0
1021
0.0
1031
0.0
1021
1.0
1031
0.0
1011
0.0
1021
0.0
1031
0.0
1021
0.0
1031
1.0
1040
-0.0000000000000013
1010
0.0
1020
0.0
1030
1.0
1000
ANSI34
1070
     0
1070
     1
1071
        1
1071
        7
1070
     1
1070
     1
1071
        3
1040
6.798694113797791
1040
4.9338007624720319
1040
0.4142135623730953
1040
6.7046941137407909
1040
5.027800762529032
1040
0.0
1040
6.7046941137407909
1040
4.9338007624720319
1040
0.0
1071
        3
1005
10816F
1005
108171
1005
108170
1070
     0
1070
     1
1040
0.0
1040
0.0600638978
1070
     0
1070
     4
1040
0.7853981633974483
1040
10.909166959740791
1040
11.84114900947203
1040
-0.0318536920791568
1040
0.0318536920791568
1070
     0
1040
0.7853981633974483
1040
10.919784857082689
1040
11.84114900947203
1040
-0.0318536920791568
1040
0.0318536920791568
1070
     0
1040
0.7853981633974483
1040
10.93040275448466
1040
11.84114900947203
1040
-0.0318536920791568
1040
0.0318536920791568
1070
     0
1040
0.7853981633974483
1040
10.941020651826561
1040
11.84114900947203
1040
-0.0318536920791568
1040
0.0318536920791568
1070
     0
1040
0.0035280081172457
1071
        1
1040
6.756749377679891
1040
4.9602563957304611
1040
-0.0000000000000013
1002
}
  0
INSERT
  5
10816E
  8
B-1W-JAW
  6
CONTINUOUS
  2
*X34
 10
0.0
 20
0.0
 30
0.0
1001
ACAD
1000
HATCH
1002
{
1070
    19
1000
ANSI34
1040
0.0600638978
1040
0.0
1000
ASC_BOUNDS
1070
     1
1070
     1
1070
     3
1005
10816F
1005
108170
1005
108171
1000
ASC_SEEDPOINT
1011
6.6613178785453808
1021
0.0
1031
0.0
1021
4.8903274397025287
1031
-0.0000000000000013
1000
R14_HATCH_DATA
1000
10816E
1011
1.0
1021
0.0
1031
0.0
1021
0.0
1031
0.0
1011
0.0
1021
0.0
1031
0.0
1021
1.0
1031
0.0
1011
0.0
1021
0.0
1031
0.0
1021
0.0
1031
1.0
1040
-0.0000000000000013
1010
0.0
1020
0.0
1030
1.0
1000
ANSI34
1070
     0
1070
     1
1071
        1
1071
        7
1070
     1
1070
     1
1071
        3
1040
6.7046941137407909
1040
4.8398007624150319
1040
0.0
1040
6.7046941137407909
1040
4.9338007624720319
1040
0.0
1040
6.6106941136837909
1040
4.9338007624720319
1040
0.4142135623730953
1071
        3
1005
108171
1005
108170
1005
10816F
1070
     0
1070
     1
1040
0.0
1040
0.0600638978
1070
     0
1070
     4
1040
0.7853981633974483
1040
10.909166959740791
1040
11.84114900947203
1040
-0.0318536920791568
1040
0.0318536920791568
1070
     0
1040
0.7853981633974483
1040
10.919784857082689
1040
11.84114900947203
1040
-0.0318536920791568
1040
0.0318536920791568
1070
     0
1040
0.7853981633974483
1040
10.93040275448466
1040
11.84114900947203
1040
-0.0318536920791568
1040
0.0318536920791568
1070
     0
1040
0.7853981633974483
1040
10.941020651826561
1040
11.84114900947203
1040
-0.0318536920791568
1040
0.0318536920791568
1070
     0
1040
0.0035280081172457
1071
        1
1040
6.6613178785453808
1040
4.8903274397025287
1040
-0.0000000000000013
1002
}
  0
LINE
  5
10816F
  8
B-1W-JAW
 10
6.7046941137407909
 20
5.027800762529032
 30
0.0
 11
6.7046941137407909
 21
4.8398007624150319
 31
0.0
1001
ACAD
1000
ASC_BOUNDS
1002
{
1070
    19
1005
10816E
1005
10816D
1002
}
  0
CIRCLE
  5
108170
  8
B-1W-JAW
 10
6.7046941137407909
 20
4.9338007624720319
 30
0.0
 40
0.094000000057
1001
ACAD
1000
ASC_BOUNDS
1002
{
1070
    19
1005
10816E
1005
10816D
1002
}
  0
LINE
  5
108171
  8
B-1W-JAW
 10
6.6106941136837918
 20
4.9338007624720319
 30
0.0
 11
6.7986941137977901
 21
4.9338007624720319
 31
0.0
1001
ACAD
1000
ASC_BOUNDS
1002
{
1070
    19
1005
10816E
1005
10816D
1002
}
  0
INSERT
  5
108174
  8
B-1W-JAW
  6
CONTINUOUS
  2
*X35
 10
0.0
 20
0.0
 30
0.0
1001
ACAD
1000
HATCH
1002
{
1070
    19
1000
ANSI34
1040
0.0600638978
1040
0.0
1000
ASC_BOUNDS
1070
     1
1070
     1
1070
     3
1005
108178
1005
108177
1005
108176
1000
ASC_SEEDPOINT
1011
6.2863178785453808
1021
0.0
1031
0.0
1021
5.3903274397025287
1031
-0.0000000000000013
1000
R14_HATCH_DATA
1000
108174
1011
1.0
1021
0.0
1031
0.0
1021
0.0
1031
0.0
1011
0.0
1021
0.0
1031
0.0
1021
1.0
1031
0.0
1011
0.0
1021
0.0
1031
0.0
1021
0.0
1031
1.0
1040
-0.0000000000000013
1010
0.0
1020
0.0
1030
1.0
1000
ANSI34
1070
     0
1070
     1
1071
        1
1071
        7
1070
     1
1070
     1
1071
        3
1040
6.3296941137407909
1040
5.3398007624150319
1040
0.0
1040
6.3296941137407901
1040
5.4338007624720319
1040
0.0
1040
6.2356941136837909
1040
5.4338007624720319
1040
0.4142135623730953
1071
        3
1005
108176
1005
108177
1005
108178
1070
     0
1070
     1
1040
0.0
1040
0.0600638978
1070
     0
1070
     4
1040
0.7853981633974483
1040
10.534166959740791
1040
12.34114900947203
1040
-0.0318536920791568
1040
0.0318536920791568
1070
     0
1040
0.7853981633974483
1040
10.544784857082689
1040
12.34114900947203
1040
-0.0318536920791568
1040
0.0318536920791568
1070
     0
1040
0.7853981633974483
1040
10.55540275448466
1040
12.34114900947203
1040
-0.0318536920791568
1040
0.0318536920791568
1070
     0
1040
0.7853981633974483
1040
10.566020651826561
1040
12.34114900947203
1040
-0.0318536920791568
1040
0.0318536920791568
1070
     0
1040
0.0035280081172457
1071
        1
1040
6.2863178785453808
1040
5.3903274397025287
1040
-0.0000000000000013
1002
}
  0
INSERT
  5
108175
  8
B-1W-JAW
  6
CONTINUOUS
  2
*X36
 10
0.0
 20
0.0
 30
0.0
1001
ACAD
1000
HATCH
1002
{
1070
    19
1000
ANSI34
1040
0.0600638978
1040
0.0
1000
ASC_BOUNDS
1070
     1
1070
     1
1070
     3
1005
108177
1005
108176
1005
108178
1000
ASC_SEEDPOINT
1011
6.381749377679891
1021
0.0
1031
0.0
1021
5.4602563957304611
1031
-0.0000000000000013
1000
R14_HATCH_DATA
1000
108175
1011
1.0
1021
0.0
1031
0.0
1021
0.0
1031
0.0
1011
0.0
1021
0.0
1031
0.0
1021
1.0
1031
0.0
1011
0.0
1021
0.0
1031
0.0
1021
0.0
1031
1.0
1040
-0.0000000000000013
1010
0.0
1020
0.0
1030
1.0
1000
ANSI34
1070
     0
1070
     1
1071
        1
1071
        7
1070
     1
1070
     1
1071
        3
1040
6.423694113797791
1040
5.4338007624720319
1040
0.4142135623730953
1040
6.3296941137407909
1040
5.527800762529032
1040
0.0
1040
6.3296941137407901
1040
5.4338007624720319
1040
0.0
1071
        3
1005
108178
1005
108176
1005
108177
1070
     0
1070
     1
1040
0.0
1040
0.0600638978
1070
     0
1070
     4
1040
0.7853981633974483
1040
10.534166959740791
1040
12.34114900947203
1040
-0.0318536920791568
1040
0.0318536920791568
1070
     0
1040
0.7853981633974483
1040
10.544784857082689
1040
12.34114900947203
1040
-0.0318536920791568
1040
0.0318536920791568
1070
     0
1040
0.7853981633974483
1040
10.55540275448466
1040
12.34114900947203
1040
-0.0318536920791568
1040
0.0318536920791568
1070
     0
1040
0.7853981633974483
1040
10.566020651826561
1040
12.34114900947203
1040
-0.0318536920791568
1040
0.0318536920791568
1070
     0
1040
0.0035280081172457
1071
        1
1040
6.381749377679891
1040
5.4602563957304611
1040
-0.0000000000000013
1002
}
  0
LINE
  5
108176
  8
B-1W-JAW
 10
6.2356941136837918
 20
5.4338007624720319
 30
0.0
 11
6.4236941137977901
 21
5.4338007624720319
 31
0.0
1001
ACAD
1000
ASC_BOUNDS
1002
{
1070
    19
1005
108175
1005
108174
1002
}
  0
CIRCLE
  5
108177
  8
B-1W-JAW
 10
6.3296941137407909
 20
5.4338007624720319
 30
0.0
 40
0.094000000057
1001
ACAD
1000
ASC_BOUNDS
1002
{
1070
    19
1005
108175
1005
108174
1002
}
  0
LINE
  5
108178
  8
B-1W-JAW
 10
6.3296941137407909
 20
5.527800762529032
 30
0.0
 11
6.3296941137407909
 21
5.3398007624150319
 31
0.0
1001
ACAD
1000
ASC_BOUNDS
1002
{
1070
    19
1005
108175
1005
108174
1002
}
  0
ENDSEC
  0
EOF
