  0
SECTION
  2
HEADER
  9
$ACADVER
  1
AC1009
  9
$INSBASE
 10
0.0
 20
0.0
 30
0.0
  9
$EXTMIN
 10
-1.512868279485349
 20
-0.6306337660734638
 30
0.0
  9
$EXTMAX
 10
5.4802906046379478
 20
9.7753497133637826
 30
0.0
  9
$LIMMIN
 10
0.0
 20
0.0
  9
$LIMMAX
 10
12.0
 20
9.0
  9
$ORTHOMODE
 70
     1
  9
$REGENMODE
 70
     1
  9
$FILLMODE
 70
     1
  9
$QTEXTMODE
 70
     0
  9
$MIRRTEXT
 70
     1
  9
$DRAGMODE
 70
     2
  9
$LTSCALE
 40
0.5
  9
$OSMODE
 70
     5
  9
$ATTMODE
 70
     1
  9
$TEXTSIZE
 40
0.156
  9
$TRACEWID
 40
0.05
  9
$TEXTSTYLE
  7
ROMANS
  9
$CLAYER
  8
BT-2P-BODY
  9
$CELTYPE
  6
BYLAYER
  9
$CECOLOR
 62
   256
  9
$DIMSCALE
 40
0.5
  9
$DIMASZ
 40
0.18
  9
$DIMEXO
 40
0.0625
  9
$DIMDLI
 40
0.38
  9
$DIMRND
 40
0.0
  9
$DIMDLE
 40
0.0
  9
$DIMEXE
 40
0.18
  9
$DIMTP
 40
0.0
  9
$DIMTM
 40
0.0
  9
$DIMTXT
 40
0.156
  9
$DIMCEN
 40
0.09
  9
$DIMTSZ
 40
0.0
  9
$DIMTOL
 70
     0
  9
$DIMLIM
 70
     0
  9
$DIMTIH
 70
     1
  9
$DIMTOH
 70
     1
  9
$DIMSE1
 70
     0
  9
$DIMSE2
 70
     0
  9
$DIMTAD
 70
     0
  9
$DIMZIN
 70
     4
  9
$DIMBLK
  1

  9
$DIMASO
 70
     1
  9
$DIMSHO
 70
     1
  9
$DIMPOST
  1

  9
$DIMAPOST
  1

  9
$DIMALT
 70
     0
  9
$DIMALTD
 70
     2
  9
$DIMALTF
 40
25.399999999999999
  9
$DIMLFAC
 40
1.0
  9
$DIMTOFL
 70
     0
  9
$DIMTVP
 40
0.0
  9
$DIMTIX
 70
     0
  9
$DIMSOXD
 70
     0
  9
$DIMSAH
 70
     0
  9
$DIMBLK1
  1

  9
$DIMBLK2
  1

  9
$DIMSTYLE
  2
STANDARD
  9
$DIMCLRD
 70
   256
  9
$DIMCLRE
 70
   256
  9
$DIMCLRT
 70
   256
  9
$DIMTFAC
 40
1.0
  9
$DIMGAP
 40
0.09
  9
$LUNITS
 70
     2
  9
$LUPREC
 70
     4
  9
$SKETCHINC
 40
0.1
  9
$FILLETRAD
 40
0.0
  9
$AUNITS
 70
     0
  9
$AUPREC
 70
     2
  9
$MENU
  1
acad
  9
$ELEVATION
 40
0.0
  9
$PELEVATION
 40
0.0
  9
$THICKNESS
 40
0.0
  9
$LIMCHECK
 70
     0
  9
$BLIPMODE
 70
     0
  9
$CHAMFERA
 40
0.0
  9
$CHAMFERB
 40
0.0
  9
$SKPOLY
 70
     0
  9
$TDCREATE
 40
2452957.5519900108
  9
$TDUPDATE
 40
2453193.5647972678
  9
$TDINDWG
 40
0.1251483102
  9
$TDUSRTIMER
 40
0.1251477662
  9
$USRTIMER
 70
     1
  9
$ANGBASE
 50
0.0
  9
$ANGDIR
 70
     0
  9
$PDMODE
 70
     0
  9
$PDSIZE
 40
0.0
  9
$PLINEWID
 40
0.0
  9
$COORDS
 70
     0
  9
$SPLFRAME
 70
     0
  9
$SPLINETYPE
 70
     6
  9
$SPLINESEGS
 70
     8
  9
$ATTDIA
 70
     0
  9
$ATTREQ
 70
     1
  9
$HANDLING
 70
 12289
  9
$HANDSEED
  5
1086EA
  9
$SURFTAB1
 70
    15
  9
$SURFTAB2
 70
    15
  9
$SURFTYPE
 70
     6
  9
$SURFU
 70
     6
  9
$SURFV
 70
     6
  9
$UCSNAME
  2
TOP
  9
$UCSORG
 10
0.0
 20
0.0
 30
0.0
  9
$UCSXDIR
 10
1.0
 20
0.0
 30
0.0
  9
$UCSYDIR
 10
0.0
 20
1.0
 30
0.0
  9
$PUCSNAME
  2

  9
$PUCSORG
 10
0.0
 20
0.0
 30
0.0
  9
$PUCSXDIR
 10
1.0
 20
0.0
 30
0.0
  9
$PUCSYDIR
 10
0.0
 20
1.0
 30
0.0
  9
$USERI1
 70
     0
  9
$USERI2
 70
     0
  9
$USERI3
 70
     0
  9
$USERI4
 70
     0
  9
$USERI5
 70
     0
  9
$USERR1
 40
0.0
  9
$USERR2
 40
0.0
  9
$USERR3
 40
0.0
  9
$USERR4
 40
0.0
  9
$USERR5
 40
0.0
  9
$WORLDVIEW
 70
     1
  9
$SHADEDGE
 70
     3
  9
$SHADEDIF
 70
    70
  9
$TILEMODE
 70
     1
  9
$MAXACTVP
 70
    15
  9
$PLIMCHECK
 70
     0
  9
$PEXTMIN
 10
1.0000000000000000E+020
 20
1.0000000000000000E+020
 30
1.0000000000000000E+020
  9
$PEXTMAX
 10
-1.0000000000000000E+020
 20
-1.0000000000000000E+020
 30
-1.0000000000000000E+020
  9
$PLIMMIN
 10
0.0
 20
0.0
  9
$PLIMMAX
 10
12.0
 20
9.0
  9
$UNITMODE
 70
     0
  9
$VISRETAIN
 70
     0
  9
$PLINEGEN
 70
     0
  9
$PSLTSCALE
 70
     1
  0
ENDSEC
  0
SECTION
  2
TABLES
  0
TABLE
  2
VPORT
 70
     3
  0
VPORT
  2
*ACTIVE
 70
     0
 10
0.0
 20
0.0
 11
1.0
 21
1.0
 12
-0.1526479866744363
 22
6.8190621972349499
 13
0.0
 23
0.0
 14
1.0
 24
1.0
 15
0.0
 25
0.0
 16
0.0
 26
0.0
 36
1.0
 17
2.1367081379429198
 27
-2.2466461518772092
 37
1.552034160738883
 40
10.50828803145372
 41
1.7560975609756091
 42
50.0
 43
0.0
 44
0.0
 50
0.0
 51
0.0
 71
     0
 72
   100
 73
     1
 74
     0
 75
     0
 76
     0
 77
     0
 78
     0
  0
ENDTAB
  0
TABLE
  2
LTYPE
 70
    21
  0
LTYPE
  2
CONTINUOUS
 70
     0
  3
Solid line
 72
    65
 73
     0
 40
0.0
  0
LTYPE
  2
HIDDEN
 70
     0
  3
__ __ __ __ __ __ __ __ __ __ __ __ __ __ __ __
 72
    65
 73
     2
 40
0.375
 49
0.25
 49
-0.125
  0
LTYPE
  2
HIDDEN2
 70
     0
  3
_ _ _ _ _ _ _ _ _ _ _ _ _ _ _ _ _ _ _ _ _ _ _ _
 72
    65
 73
     2
 40
0.1875
 49
0.125
 49
-0.0625
  0
LTYPE
  2
CENTER
 70
     0
  3
____ _ ____ _ ____ _ ____ _ ____ _ ____ _ ____ 
 72
    65
 73
     4
 40
2.0
 49
1.25
 49
-0.25
 49
0.25
 49
-0.25
  0
LTYPE
  2
CENTER2
 70
     0
  3
___ _ ___ _ ___ _ ___ _ ___ _ ___ _ ___ _ ___ _
 72
    65
 73
     4
 40
1.125
 49
0.75
 49
-0.125
 49
0.125
 49
-0.125
  0
LTYPE
  2
CENTERX2
 70
     0
  3
________  __  ________  __  ________  __  _____
 72
    65
 73
     4
 40
4.0
 49
2.5
 49
-0.5
 49
0.5
 49
-0.5
  0
LTYPE
  2
DASHDOT
 70
     0
  3
__ . __ . __ . __ . __ . __ . __ . __ . __ . __
 72
    65
 73
     4
 40
1.0
 49
0.5
 49
-0.25
 49
0.0
 49
-0.25
  0
LTYPE
  2
DASHDOT2
 70
     0
  3
_._._._._._._._._._._._._._._._._._._._._._._._
 72
    65
 73
     4
 40
0.5
 49
0.25
 49
-0.125
 49
0.0
 49
-0.125
  0
LTYPE
  2
DASHDOTX2
 70
     0
  3
____  .  ____  .  ____  .  ____  .  ____  .  __
 72
    65
 73
     4
 40
2.0
 49
1.0
 49
-0.5
 49
0.0
 49
-0.5
  0
LTYPE
  2
DASHED
 70
     0
  3
__ __ __ __ __ __ __ __ __ __ __ __ __ __ __ __
 72
    65
 73
     2
 40
0.75
 49
0.5
 49
-0.25
  0
LTYPE
  2
DASHED2
 70
     0
  3
_ _ _ _ _ _ _ _ _ _ _ _ _ _ _ _ _ _ _ _ _ _ _ _
 72
    65
 73
     2
 40
0.375
 49
0.25
 49
-0.125
  0
LTYPE
  2
DASHEDX2
 70
     0
  3
____  ____  ____  ____  ____  ____  ____  ____ 
 72
    65
 73
     2
 40
1.5
 49
1.0
 49
-0.5
  0
LTYPE
  2
DOT
 70
     0
  3
. . . . . . . . . . . . . . . . . . . . . . . .
 72
    65
 73
     2
 40
0.25
 49
0.0
 49
-0.25
  0
LTYPE
  2
DOT2
 70
     0
  3
...............................................
 72
    65
 73
     2
 40
0.125
 49
0.0
 49
-0.125
  0
LTYPE
  2
DOTX2
 70
     0
  3
.  .  .  .  .  .  .  .  .  .  .  .  .  .  .  . 
 72
    65
 73
     2
 40
0.5
 49
0.0
 49
-0.5
  0
LTYPE
  2
HIDDENX2
 70
     0
  3
____ ____ ____ ____ ____ ____ ____ ____ ____ __
 72
    65
 73
     2
 40
0.75
 49
0.5
 49
-0.25
  0
LTYPE
  2
PHANTOM
 70
     0
  3
______  __  __  ______  __  __  ______  __  __ 
 72
    65
 73
     6
 40
2.5
 49
1.25
 49
-0.25
 49
0.25
 49
-0.25
 49
0.25
 49
-0.25
  0
LTYPE
  2
PHANTOM2
 70
     0
  3
___ _ _ ___ _ _ ___ _ _ ___ _ _ ___ _ _ ___ _ _
 72
    65
 73
     6
 40
1.25
 49
0.625
 49
-0.125
 49
0.125
 49
-0.125
 49
0.125
 49
-0.125
  0
LTYPE
  2
PHANTOMX2
 70
     0
  3
____________    ____    ____    ____________   
 72
    65
 73
     6
 40
5.0
 49
2.5
 49
-0.5
 49
0.5
 49
-0.5
 49
0.5
 49
-0.5
  0
LTYPE
  2
ASULTYPE
 70
     0
  3
Solid line
 72
    65
 73
     2
 40
3.0
 49
2.5
 49
0.5
  0
LTYPE
  2
ASVLTYPE
 70
     0
  3
__ __ __ __ __ __ __ __ __ __ __ __ __ __ __ __ __ __ __ __ __
 72
    65
 73
     2
 40
0.75
 49
0.5
 49
-0.25
  0
ENDTAB
  0
TABLE
  2
LAYER
 70
    15
  0
LAYER
  2
0
 70
     0
 62
     7
  6
CONTINUOUS
  0
LAYER
  2
PART
 70
     0
 62
     3
  6
CONTINUOUS
  0
LAYER
  2
C
 70
     0
 62
     2
  6
CENTER
  0
LAYER
  2
PARTH
 70
     0
 62
     4
  6
HIDDEN
  0
LAYER
  2
TEXT
 70
     0
 62
     7
  6
CONTINUOUS
  0
LAYER
  2
CENTER
 70
     0
 62
     2
  6
CENTER
  0
LAYER
  2
CI
 70
     0
 62
     8
  6
CONTINUOUS
  0
LAYER
  2
HID
 70
     0
 62
     4
  6
HIDDEN
  0
LAYER
  2
LINKS
 70
     0
 62
     8
  6
CONTINUOUS
  0
LAYER
  2
BT-2P-BODY
 70
     0
 62
   252
  6
CONTINUOUS
  0
LAYER
  2
B-2P-C
 70
     0
 62
    30
  6
CONTINUOUS
  0
LAYER
  2
B-2P-IL
 70
     0
 62
   253
  6
CONTINUOUS
  0
LAYER
  2
B2P-L-LINK
 70
     0
 62
   254
  6
CONTINUOUS
  0
LAYER
  2
BT-2P-JAW-BLK
 70
     0
 62
   254
  6
CONTINUOUS
  0
LAYER
  2
B-2P-JAW-BLK
 70
     0
 62
   254
  6
CONTINUOUS
  0
ENDTAB
  0
TABLE
  2
STYLE
 70
    11
  0
STYLE
  2
STANDARD
 70
     0
 40
0.0
 41
0.8
 50
0.0
 71
     0
 42
0.2067340150288407
  3
SIMPLEX.SHX
  4

  0
STYLE
  2
ASHADE
 70
     0
 40
0.2
 41
1.0
 50
0.0
 71
     0
 42
0.2
  3
simplex
  4

  0
STYLE
  2
ROMANS
 70
     0
 40
0.0
 41
1.0
 50
0.0
 71
     0
 42
0.156
  3
romans.shx
  4

  0
STYLE
  2
ITALICC
 70
     0
 40
0.0
 41
1.0
 50
0.0
 71
     0
 42
0.156
  3
italicc
  4

  0
STYLE
  2
ROMAND
 70
     0
 40
0.0
 41
1.0
 50
0.0
 71
     0
 42
0.156
  3
romand
  4

  0
STYLE
  2
ITALICT
 70
     0
 40
0.0
 41
1.0
 50
0.0
 71
     0
 42
0.156
  3
italict
  4

  0
STYLE
  2
1
 70
     0
 40
0.0
 41
1.0
 50
0.0
 71
     0
 42
0.156
  3
ROMANS
  4

  0
STYLE
  2
2
 70
     0
 40
0.0
 41
1.0
 50
0.0
 71
     0
 42
0.156
  3
ROMAND
  4

  0
STYLE
  2
3
 70
     0
 40
0.0
 41
1.0
 50
0.0
 71
     0
 42
0.156
  3
ITALICC
  4

  0
STYLE
  2
4
 70
     0
 40
0.0
 41
1.0
 50
0.0
 71
     0
 42
0.156
  3
ITALICT
  4

  0
STYLE
  2
ADESK1
 70
     0
 40
0.0
 41
1.0
 50
0.0
 71
     0
 42
0.156
  3
romans.shx
  4

  0
ENDTAB
  0
TABLE
  2
VIEW
 70
     1
  0
VIEW
  2
LL
 70
     0
 40
9.8243439384828406
 10
1.4685819233133679
 20
0.0606082936169221
 41
11.60077376152519
 11
0.6123724356957946
 21
-0.6123724356957946
 31
0.5
 12
2.1367081379429198
 22
-2.2466461518772092
 32
1.552034160738883
 42
50.0
 43
-5.8312182741116763
 44
-5.8312182741116763
 50
0.0
 71
     0
  0
ENDTAB
  0
TABLE
  2
UCS
 70
     6
  0
UCS
  2
FRONT
 70
     0
 10
0.0
 20
0.0
 30
0.0
 11
1.0
 21
0.0
 31
0.0
 12
0.0
 22
0.0
 32
1.0
  0
UCS
  2
RSIDE
 70
     0
 10
0.0
 20
0.0
 30
0.0
 11
0.0
 21
1.0
 31
0.0
 12
0.0
 22
0.0
 32
1.0
  0
UCS
  2
LSIDE
 70
     0
 10
0.0
 20
0.0
 30
0.0
 11
0.0
 21
-1.0
 31
0.0
 12
0.0
 22
0.0
 32
1.0
  0
UCS
  2
BOTTOM
 70
     0
 10
0.0
 20
0.0
 30
0.0
 11
1.0
 21
0.0
 31
0.0
 12
0.0
 22
-1.0
 32
0.0
  0
UCS
  2
TOP
 70
     0
 10
0.0
 20
0.0
 30
0.0
 11
1.0
 21
0.0
 31
0.0
 12
0.0
 22
1.0
 32
0.0
  0
UCS
  2
BORDER
 70
     0
 10
0.0
 20
0.0
 30
0.0
 11
0.7071067811865476
 21
0.7071067811865476
 31
0.0
 12
-0.3535533905932738
 22
0.3535533905932738
 32
0.8660254037844385
  0
ENDTAB
  0
TABLE
  2
APPID
 70
     5
  0
APPID
  2
ACAD
 70
     0
  0
APPID
  2
AD_DRAW
 70
     0
  0
APPID
  2
DESIGNERASSEMBLIES
 70
     0
  0
APPID
  2
MCAD_NO_VIS
 70
     0
  0
APPID
  2
ASURF_PCURVE_APPNAME
 70
     0
  0
ENDTAB
  0
TABLE
  2
DIMSTYLE
 70
     4
  0
DIMSTYLE
  2
STANDARD
 70
     0
  3

  4

  5

  6

  7

 40
0.5
 41
0.18
 42
0.0625
 43
0.38
 44
0.18
 45
0.0
 46
0.0
 47
0.0
 48
0.0
140
0.156
141
0.09
142
0.0
143
25.399999999999999
144
1.0
145
0.0
146
1.0
147
0.09
 71
     0
 72
     0
 73
     1
 74
     1
 75
     0
 76
     0
 77
     0
 78
     4
170
     0
171
     2
172
     0
173
     0
174
     0
175
     0
176
   256
177
   256
178
   256
  0
DIMSTYLE
  2
STANDARD$0
 70
     0
  3

  4

  5

  6

  7

 40
0.5
 41
0.18
 42
0.063
 43
0.38
 44
0.18
 45
0.0
 46
0.0
 47
0.0
 48
0.0
140
0.156
141
0.09
142
0.0
143
25.399999999999999
144
1.0
145
0.0
146
1.0
147
0.09
 71
     0
 72
     0
 73
     1
 74
     1
 75
     0
 76
     0
 77
     0
 78
     4
170
     0
171
     2
172
     0
173
     0
174
     0
175
     0
176
   256
177
   256
178
   256
  0
DIMSTYLE
  2
STANDARD$6
 70
     0
  3

  4

  5

  6

  7

 40
0.5
 41
0.18
 42
0.063
 43
0.38
 44
0.18
 45
0.0
 46
0.0
 47
0.0
 48
0.0
140
0.156
141
0.09
142
0.0
143
25.399999999999999
144
1.0
145
0.0
146
1.0
147
0.09
 71
     0
 72
     0
 73
     1
 74
     1
 75
     0
 76
     0
 77
     0
 78
     4
170
     0
171
     2
172
     0
173
     0
174
     0
175
     0
176
     0
177
   256
178
   256
  0
DIMSTYLE
  2
STANDARD$7
 70
     0
  3

  4

  5

  6

  7

 40
0.5
 41
0.18
 42
0.063
 43
0.38
 44
0.18
 45
0.0
 46
0.0
 47
0.0
 48
0.0
140
0.156
141
0.09
142
0.0
143
25.399999999999999
144
1.0
145
0.0
146
1.0
147
0.09
 71
     0
 72
     0
 73
     1
 74
     1
 75
     0
 76
     0
 77
     0
 78
     4
170
     0
171
     2
172
     0
173
     0
174
     0
175
     0
176
   256
177
     0
178
   256
  0
ENDTAB
  0
ENDSEC
  0
SECTION
  2
BLOCKS
  0
BLOCK
  8
0
  2
$MODEL_SPACE
 70
     0
 10
0.0
 20
0.0
 30
0.0
  3
$MODEL_SPACE
  1

  0
ENDBLK
  5
1069DE
  8
0
  0
BLOCK
 67
     1
  8
0
  2
$PAPER_SPACE
 70
     0
 10
0.0
 20
0.0
 30
0.0
  3
$PAPER_SPACE
  1

  0
ENDBLK
  5
1069DC
 67
     1
  8
0
  0
BLOCK
  8
0
  2
*U0
 70
     1
 10
0.0
 20
0.0
 30
0.0
  3
*U0
  1

  0
ENDBLK
  5
106A2B
  8
0
  0
BLOCK
  8
0
  2
2P_CLOSED
 70
     0
 10
0.0
 20
0.0
 30
0.0
  3
2P_CLOSED
  1

  0
LINE
  5
107C19
  8
BT-2P-JAW-BLK
  6
HIDDEN
 10
-2.123577909849792
 20
-0.2476279824272396
 30
0.0
 11
-2.123577909849792
 21
-0.9346279824272389
 31
0.0
  0
LINE
  5
107C1A
  8
BT-2P-JAW-BLK
  6
HIDDEN
 10
-3.123577909849792
 20
-0.9346279824272389
 30
0.0
 11
-3.123577909849792
 21
-0.2476279824272396
 31
0.0
  0
LINE
  5
107C1B
  8
BT-2P-JAW-BLK
  6
HIDDEN
 10
-0.1340501763501933
 20
-0.2476279824272396
 30
0.0
 11
-0.1340501763501933
 21
-0.9346279824272389
 31
0.0
  0
LINE
  5
107C1C
  8
BT-2P-JAW-BLK
  6
HIDDEN
 10
-1.1340501763501929
 20
-0.9346279824272389
 30
0.0
 11
-1.1340501763501929
 21
-0.2476279824272396
 31
0.0
  0
LINE
  5
107C1D
  8
BT-2P-JAW-BLK
  6
HIDDEN
 10
-2.123577909849792
 20
-0.9346279824272389
 30
0.0
 11
-3.123577909849792
 21
-0.9346279824272389
 31
0.0
  0
LINE
  5
107C1E
  8
BT-2P-JAW-BLK
  6
HIDDEN
 10
-0.1340501763501933
 20
-0.9346279824272389
 30
0.0
 11
-1.1340501763501929
 21
-0.9346279824272389
 31
0.0
  0
LINE
  5
107C1F
  8
BT-2P-JAW-BLK
  6
HIDDEN
 10
-2.123577909849792
 20
-0.2476279824272396
 30
0.0
 11
-3.123577909849792
 21
-0.2476279824272396
 31
0.0
  0
LINE
  5
107C20
  8
BT-2P-JAW-BLK
  6
HIDDEN
 10
-0.1340501763501933
 20
-0.2476279824272396
 30
0.0
 11
-1.1340501763501929
 21
-0.2476279824272396
 31
0.0
  0
ENDBLK
  5
107C22
  8
0
  0
BLOCK
  8
0
  2
BT2_OPEN
 70
     0
 10
0.0
 20
0.0
 30
0.0
  3
BT2_OPEN
  1

  0
LINE
  5
107C31
  8
BT-2P-JAW-BLK
 10
3.6317904517864861
 20
-1.017269016831845
 30
0.0
 11
3.6317904517864861
 21
-0.3302690168318456
 31
0.0
  0
LINE
  5
107C32
  8
BT-2P-JAW-BLK
 10
4.6317904517864861
 20
-0.3302690168318456
 30
0.0
 11
4.6317904517864861
 21
-1.017269016831845
 31
0.0
  0
LINE
  5
107C33
  8
BT-2P-JAW-BLK
 10
0.6545760214169825
 20
-1.017269016831845
 30
0.0
 11
0.6545760214169825
 21
-0.3302690168318456
 31
0.0
  0
LINE
  5
107C34
  8
BT-2P-JAW-BLK
 10
1.654576021416982
 20
-0.3302690168318456
 30
0.0
 11
1.654576021416982
 21
-1.017269016831845
 31
0.0
  0
LINE
  5
107C35
  8
BT-2P-JAW-BLK
 10
1.654576021416982
 20
-1.017269016831845
 30
0.0
 11
0.6545760214169825
 21
-1.017269016831845
 31
0.0
  0
LINE
  5
107C36
  8
BT-2P-JAW-BLK
 10
4.6317904517864861
 20
-1.017269016831845
 30
0.0
 11
3.6317904517864861
 21
-1.017269016831845
 31
0.0
  0
LINE
  5
107C37
  8
BT-2P-JAW-BLK
 10
1.654576021416982
 20
-0.3302690168318456
 30
0.0
 11
0.6545760214169825
 21
-0.3302690168318456
 31
0.0
  0
LINE
  5
107C38
  8
BT-2P-JAW-BLK
 10
4.6317904517864861
 20
-0.3302690168318456
 30
0.0
 11
3.6317904517864861
 21
-0.3302690168318456
 31
0.0
  0
ENDBLK
  5
107C3A
  8
0
  0
BLOCK
  8
0
  2
CEN-MRK
 70
     0
 10
0.0
 20
0.0
 30
0.0
  3
CEN-MRK
  1

  0
LINE
  5
107C3C
  8
C
 10
0.0
 20
0.5
 30
0.0
 11
0.0
 21
-0.5000000000000001
 31
0.0
  0
LINE
  5
107C3D
  8
C
 10
0.5000000000000002
 20
0.0
 30
0.0
 11
-0.5
 21
0.0
 31
0.0
  0
ENDBLK
  5
107C3F
  8
0
  0
ENDSEC
  0
SECTION
  2
ENTITIES
  0
CIRCLE
  5
107E0D
  8
HID
 10
5.1677906046379407
 20
4.4514122148527138
 30
0.0
 40
0.2150844733253407
  0
LINE
  5
107E0F
  8
BT-2P-BODY
 10
3.4802906046379412
 20
3.9024122148527152
 30
0.0
 11
3.4802906046379412
 21
6.3944122148527143
 31
0.0
  0
LINE
  5
107E10
  8
BT-2P-BODY
 10
5.4802906046379407
 20
3.9024122148527152
 30
0.0
 11
5.4802906046379478
 21
6.3944122148527116
 31
0.0
  0
CIRCLE
  5
107E12
  8
BT-2P-BODY
 10
1.350738935699404
 20
4.5819122148527178
 30
0.0
 40
0.1005
  0
CIRCLE
  5
107E13
  8
HID
 10
1.350738935699404
 20
4.5819122148527178
 30
0.0
 40
0.125
  0
LINE
  5
107E14
  8
BT-2P-BODY
 10
1.600738935699402
 20
3.9024122148527152
 30
0.0
 11
1.600738935699402
 21
5.5194122148527098
 31
0.0
  0
INSERT
  5
107E15
  8
C
  2
CEN-MRK
 10
1.350738935699404
 20
4.5819122148527178
 30
0.0
 41
0.3125
 42
0.3125
 43
0.3125
  0
CIRCLE
  5
107E16
  8
BT-2P-BODY
 10
-0.399261064300596
 20
4.5819122148527187
 30
0.0
 40
0.1005
  0
CIRCLE
  5
107E17
  8
HID
 10
-0.399261064300596
 20
4.5819122148527187
 30
0.0
 40
0.125
  0
LINE
  5
107E18
  8
BT-2P-BODY
 10
-0.6492610643005979
 20
3.9024122148527152
 30
0.0
 11
-0.6492610643005979
 21
5.5194122148527098
 31
0.0
  0
INSERT
  5
107E19
  8
C
  2
CEN-MRK
 10
-0.399261064300596
 20
4.5819122148527187
 30
0.0
 41
0.3125
 42
0.3125
 43
0.3125
  0
LINE
  5
107E1B
  8
C
  6
CENTER2
 10
4.4802906046379407
 20
6.5849075279589639
 30
0.0
 11
4.4802906046379407
 21
3.7694122148527081
 31
0.0
  0
LINE
  5
107E1D
  8
BT-2P-BODY
 10
-0.6492610643005979
 20
3.9024122148527152
 30
0.0
 11
1.600738935699402
 21
3.9024122148527152
 31
0.0
  0
LINE
  5
107E1E
  8
BT-2P-BODY
 10
3.4802906046379412
 20
2.619366233926538
 30
0.0
 11
3.4802906046379269
 21
-0.6306337660734638
 31
0.0
  0
LINE
  5
107E1F
  8
BT-2P-BODY
 10
5.4802906046379407
 20
-0.6306337660734638
 30
0.0
 11
5.4802906046379336
 21
2.6193662339265358
 31
0.0
  0
CIRCLE
  5
107E20
  8
HID
 10
4.4802906046379407
 20
0.9943662339265388
 30
0.0
 40
0.8625000000000007
  0
CIRCLE
  5
107E21
  8
BT-2P-BODY
 10
4.4802906046379407
 20
0.9943662339265388
 30
0.0
 40
0.8129999999999999
  0
LINE
  5
107E27
  8
BT-2P-BODY
 10
3.4802906046379412
 20
-0.130633766073462
 30
0.0
 11
5.4802906046379407
 21
-0.1306337660734638
 31
0.0
  0
LINE
  5
107E28
  8
BT-2P-BODY
 10
5.4802906046379407
 20
-0.6306337660734638
 30
0.0
 11
3.4802906046379412
 21
-0.6306337660734638
 31
0.0
  0
INSERT
  5
107E29
  8
C
  2
CEN-MRK
 10
5.2927906046379389
 20
0.1193662339265389
 30
0.0
 41
0.3125
 42
0.3125
 43
0.3125
 50
90.0
  0
CIRCLE
  5
107E2A
  8
HID
 10
5.2927906046379389
 20
0.1193662339265389
 30
0.0
 40
0.125
  0
CIRCLE
  5
107E2B
  8
BT-2P-BODY
 10
5.2927906046379389
 20
0.1193662339265389
 30
0.0
 40
0.1005
  0
CIRCLE
  5
107E2D
  8
BT-2P-BODY
 10
3.6677906046379318
 20
0.1193662339265389
 30
0.0
 40
0.09375
  0
INSERT
  5
107E2E
  8
C
  2
CEN-MRK
 10
3.6677906046379318
 20
0.1193662339265389
 30
0.0
 41
0.234375
 42
0.234375
 43
0.234375
 50
90.0
  0
TEXT
  5
107E30
  8
TEXT
 10
-0.3476544249085922
 20
1.150829676117842
 30
0.0
 40
0.156
  1
BT-2P
  7
ADESK1
  0
INSERT
  5
107E31
  8
C
  2
CEN-MRK
 10
4.4802906046379407
 20
0.9943662339265388
 30
0.0
 41
0.5
 42
0.5
 43
0.5
 50
90.0
  0
LINE
  5
107E32
  8
BT-2P-BODY
 10
3.4802906046379412
 20
2.1193662339265358
 30
0.0
 11
5.4802906046379407
 21
2.1193662339265358
 31
0.0
  0
LINE
  5
107E33
  8
BT-2P-BODY
 10
3.4802906046379412
 20
2.619366233926538
 30
0.0
 11
5.4802906046379407
 21
2.6193662339265358
 31
0.0
  0
INSERT
  5
107E35
  8
C
  2
CEN-MRK
 10
5.2927906046379407
 20
1.869366233926538
 30
0.0
 41
0.234375
 42
0.234375
 43
0.234375
 50
90.0
  0
CIRCLE
  5
107E36
  8
BT-2P-BODY
 10
5.2927906046379407
 20
1.869366233926538
 30
0.0
 40
0.09375
  0
CIRCLE
  5
107E37
  8
BT-2P-BODY
 10
3.6677906046379412
 20
1.869366233926538
 30
0.0
 40
0.1005
  0
INSERT
  5
107E38
  8
C
  2
CEN-MRK
 10
3.6677906046379412
 20
1.869366233926538
 30
0.0
 41
0.3125
 42
0.3125
 43
0.3125
 50
90.0
  0
CIRCLE
  5
107E39
  8
HID
 10
3.6677906046379412
 20
1.869366233926538
 30
0.0
 40
0.125
  0
LINE
  5
107E3A
  8
BT-2P-BODY
 10
3.4802906046379412
 20
3.9024122148527152
 30
0.0
 11
5.4802906046379336
 21
3.9024122148527152
 31
0.0
  0
CIRCLE
  5
107E3C
  8
CI
 10
5.1677906046379407
 20
4.4514122148527138
 30
0.0
 40
0.1685
  0
LINE
  5
107E3D
  8
CENTER
 10
5.0777906046379453
 20
4.4514122148527138
 30
0.0
 11
5.257790604637945
 21
4.4514122148527138
 31
0.0
  0
CIRCLE
  5
107E3E
  8
CI
 10
5.1677906046379407
 20
4.4514122148527138
 30
0.0
 40
0.046875
  0
LINE
  5
107E3F
  8
CENTER
 10
5.1677906046379407
 20
4.3614122148527139
 30
0.0
 11
5.1677906046379407
 21
4.5414122148527136
 31
0.0
  0
INSERT
  5
107E46
  8
BT-2P-JAW-BLK
  2
2P_CLOSED
 10
2.1045529787993948
 20
7.6306460120391062
 30
0.0
  0
INSERT
  5
107E47
  8
BT-2P-JAW-BLK
  2
BT2_OPEN
 10
-2.1674443009023321
 20
7.6306460120391062
 30
0.0
  0
LINE
  5
107E48
  8
BT-2P-BODY
 10
2.1007389356994022
 20
6.3944122148527143
 30
0.0
 11
-1.1492610643005969
 21
6.3944122148527143
 31
0.0
  0
LINE
  5
107E49
  8
B-2P-C
 10
-0.149261064300596
 20
6.6364122148526974
 30
0.0
 11
1.1007389356994031
 21
6.6364122148526974
 31
0.0
  0
ARC
  5
107E4A
  8
B2P-L-LINK
 10
0.0380487892691033
 20
6.3868170249758807
 30
0.0
 40
0.0935
 50
4.65938333435441
 51
175.34061666564551
  0
ARC
  5
107E4B
  8
B2P-L-LINK
 10
-0.1262721092777328
 20
7.0710408569934211
 30
0.0
 40
0.5
 50
219.3585698424221
 51
288.19773416307839
  0
LINE
  5
107E4C
  8
B-2P-IL
 10
-1.3730196975559941
 20
6.6133769952072612
 30
0.0
 11
-1.149261064300596
 21
6.2097057351602558
 31
0.0
  0
LINE
  5
107E4D
  8
BT-2P-BODY
 10
-1.1492610643005969
 20
5.5194122148527098
 30
0.0
 11
-1.1492610643005969
 21
6.3944122148527143
 31
0.0
  0
CIRCLE
  5
107E4F
  8
HID
 10
-0.399261064300596
 20
5.3944122148527187
 30
0.0
 40
0.125
  0
CIRCLE
  5
107E50
  8
BT-2P-BODY
 10
-0.399261064300596
 20
5.3944122148527187
 30
0.0
 40
0.1005
  0
INSERT
  5
107E51
  8
C
  2
CEN-MRK
 10
-0.399261064300596
 20
5.3944122148527187
 30
0.0
 41
0.3125
 42
0.3125
 43
0.3125
  0
CIRCLE
  5
107E53
  8
BT-2P-BODY
 10
-0.399261064300596
 20
4.9881622148527258
 30
0.0
 40
0.09375
  0
INSERT
  5
107E54
  8
C
  2
CEN-MRK
 10
-0.399261064300596
 20
4.9881622148527258
 30
0.0
 41
0.234375
 42
0.234375
 43
0.234375
  0
CIRCLE
  5
107E55
  8
BT-2P-BODY
 10
-0.8992610643005961
 20
6.1444122148527098
 30
0.0
 40
0.0935
  0
LINE
  5
107E56
  8
BT-2P-BODY
 10
-1.1492610643005969
 20
5.5194122148527098
 30
0.0
 11
-0.6492610643005979
 21
5.5194122148527098
 31
0.0
  0
CIRCLE
  5
107E57
  8
BT-2P-BODY
 10
-0.399261064300596
 20
6.1444122148527143
 30
0.0
 40
0.0935
  0
CIRCLE
  5
107E58
  8
BT-2P-BODY
 10
-0.399261064300596
 20
6.1444122148527143
 30
0.0
 40
0.0935
  0
CIRCLE
  5
107E59
  8
BT-2P-BODY
 10
-0.399261064300596
 20
6.1444122148527143
 30
0.0
 40
0.0935
  0
LINE
  5
107E5C
  8
B2P-L-LINK
 10
-0.8730196975559891
 20
6.6133769952072612
 30
0.0
 11
-0.7516455378560965
 21
6.3944122148527143
 31
0.0
  0
LINE
  5
107E5D
  8
B-2P-IL
 10
-0.9442619221034984
 20
6.6133769952072612
 30
0.0
 11
-0.8228877624036057
 21
6.3944122148527143
 31
0.0
  0
LINE
  5
107E5E
  8
B-2P-C
 10
-0.149261064300596
 20
6.5715696286459249
 30
0.0
 11
-0.149261064300596
 21
6.6364122148526974
 31
0.0
  0
LINE
  5
107E60
  8
B-2P-JAW-BLK
 10
-0.5128682794853497
 20
9.7753497133637826
 30
0.0
 11
-0.5128682794853497
 21
8.2753497133637826
 31
0.0
  0
LINE
  5
107E61
  8
B-2P-JAW-BLK
 10
-1.512868279485349
 20
8.2753497133637826
 30
0.0
 11
-1.512868279485349
 21
9.7753497133637826
 31
0.0
  0
LINE
  5
107E64
  8
B-2P-JAW-BLK
 10
-0.5128682794853497
 20
8.2753497133637826
 30
0.0
 11
-1.512868279485349
 21
8.2753497133637826
 31
0.0
  0
INSERT
  5
107E65
  8
C
  2
CEN-MRK
 10
-1.012868279485349
 20
8.4628497133637826
 30
0.0
 41
0.234375
 42
0.234375
 43
0.234375
  0
CIRCLE
  5
107E66
  8
BT-2P-JAW-BLK
 10
-1.012868279485349
 20
8.4628497133637826
 30
0.0
 40
0.0945
  0
INSERT
  5
107E67
  8
C
  2
CEN-MRK
 10
-1.324868279485349
 20
8.4628497133637826
 30
0.0
 41
0.3125
 42
0.3125
 43
0.3125
  0
CIRCLE
  5
107E68
  8
PARTH
 10
-1.324868279485349
 20
8.4628497133637826
 30
0.0
 40
0.125
  0
CIRCLE
  5
107E69
  8
BT-2P-JAW-BLK
 10
-1.324868279485349
 20
8.4628497133637826
 30
0.0
 40
0.1005
  0
INSERT
  5
107E6A
  8
C
  2
CEN-MRK
 10
-0.7008682794853504
 20
8.4628497133637826
 30
0.0
 41
0.3125
 42
0.3125
 43
0.3125
  0
CIRCLE
  5
107E6B
  8
PARTH
 10
-0.7008682794853504
 20
8.4628497133637826
 30
0.0
 40
0.125
  0
CIRCLE
  5
107E6C
  8
BT-2P-JAW-BLK
 10
-0.7008682794853504
 20
8.4628497133637826
 30
0.0
 40
0.1005
  0
CIRCLE
  5
107E6E
  8
PARTH
 10
-0.7008682794853504
 20
9.5878497133637826
 30
0.0
 40
0.125
  0
CIRCLE
  5
107E6F
  8
BT-2P-JAW-BLK
 10
-0.7008682794853504
 20
9.5878497133637826
 30
0.0
 40
0.1005
  0
CIRCLE
  5
107E70
  8
PARTH
 10
-1.324868279485349
 20
9.5878497133637826
 30
0.0
 40
0.125
  0
CIRCLE
  5
107E71
  8
BT-2P-JAW-BLK
 10
-1.324868279485349
 20
9.5878497133637826
 30
0.0
 40
0.1005
  0
INSERT
  5
107E72
  8
C
  2
CEN-MRK
 10
-1.012868279485349
 20
9.5878497133637826
 30
0.0
 41
0.234375
 42
0.234375
 43
0.234375
  0
CIRCLE
  5
107E73
  8
BT-2P-JAW-BLK
 10
-1.012868279485349
 20
9.5878497133637826
 30
0.0
 40
0.0945
  0
INSERT
  5
107E74
  8
C
  2
CEN-MRK
 10
-1.324868279485349
 20
9.5878497133637826
 30
0.0
 41
0.3125
 42
0.3125
 43
0.3125
  0
INSERT
  5
107E75
  8
C
  2
CEN-MRK
 10
-0.7008682794853504
 20
9.5878497133637826
 30
0.0
 41
0.3125
 42
0.3125
 43
0.3125
  0
LINE
  5
107E77
  8
B-2P-JAW-BLK
 10
-1.512868279485349
 20
9.7753497133637826
 30
0.0
 11
-0.5128682794853497
 21
9.7753497133637826
 31
0.0
  0
LINE
  5
107E78
  8
B-2P-IL
 10
2.3244975689548051
 20
6.6133769952072612
 30
0.0
 11
2.1007389356994022
 21
6.2097057351602487
 31
0.0
  0
LINE
  5
107E79
  8
BT-2P-BODY
 10
2.1007389356994022
 20
6.3944122148527143
 30
0.0
 11
2.1007389356994022
 21
5.5194122148527098
 31
0.0
  0
CIRCLE
  5
107E7A
  8
BT-2P-BODY
 10
1.8507389356994031
 20
6.1444122148527089
 30
0.0
 40
0.0935
  0
LINE
  5
107E7B
  8
BT-2P-BODY
 10
1.600738935699402
 20
5.5194122148527098
 30
0.0
 11
2.1007389356994022
 21
5.5194122148527098
 31
0.0
  0
CIRCLE
  5
107E7C
  8
HID
 10
1.350738935699404
 20
5.3944122148527187
 30
0.0
 40
0.125
  0
CIRCLE
  5
107E7D
  8
BT-2P-BODY
 10
1.350738935699404
 20
5.3944122148527187
 30
0.0
 40
0.1005
  0
INSERT
  5
107E7E
  8
C
  2
CEN-MRK
 10
1.350738935699404
 20
5.3944122148527187
 30
0.0
 41
0.3125
 42
0.3125
 43
0.3125
  0
CIRCLE
  5
107E7F
  8
BT-2P-BODY
 10
1.350738935699404
 20
4.9881622148527249
 30
0.0
 40
0.09375
  0
INSERT
  5
107E80
  8
C
  2
CEN-MRK
 10
1.350738935699404
 20
4.9881622148527249
 30
0.0
 41
0.234375
 42
0.234375
 43
0.234375
  0
CIRCLE
  5
107E81
  8
BT-2P-BODY
 10
1.3507389356994031
 20
6.1444122148527134
 30
0.0
 40
0.0935
  0
LINE
  5
107E82
  8
B-2P-IL
 10
1.8957397935023119
 20
6.6133769952072612
 30
0.0
 11
1.774365633802419
 21
6.3944122148527143
 31
0.0
  0
ARC
  5
107E83
  8
B2P-L-LINK
 10
0.9134290821297135
 20
6.386817024975886
 30
0.0
 40
0.0935
 50
4.6593833343511442
 51
175.34061666564881
  0
ARC
  5
107E84
  8
B2P-L-LINK
 10
1.07774998067655
 20
7.0710408569934247
 30
0.0
 40
0.5
 50
251.80226583692141
 51
320.64143015757548
  0
POLYLINE
  5
107E85
  8
CI
 66
     1
 10
0.0
 20
0.0
 30
0.0
  0
VERTEX
  5
1086E1
  8
CI
 10
0.7492389356994025
 20
6.6674122148526962
 30
0.0
 42
0.1623613293970984
  0
VERTEX
  5
1086E2
  8
CI
 10
0.6070189356994044
 20
6.8024122148526969
 30
0.0
  0
VERTEX
  5
1086E3
  8
CI
 10
0.3444589356994037
 20
6.8024122148526969
 30
0.0
 42
0.1623613293970984
  0
VERTEX
  5
1086E4
  8
CI
 10
0.2022389356994054
 20
6.6674122148526962
 30
0.0
  0
VERTEX
  5
1086E5
  8
CI
 10
0.2022389356994054
 20
6.6364122148526974
 30
0.0
  0
VERTEX
  5
1086E6
  8
CI
 10
0.7492389356994025
 20
6.6364122148526974
 30
0.0
  0
VERTEX
  5
1086E7
  8
CI
 10
0.7492389356994025
 20
6.6674122148526962
 30
0.0
  0
VERTEX
  5
1086E8
  8
CI
 10
0.2022389356994054
 20
6.6674122148526962
 30
0.0
  0
SEQEND
  5
1086E9
  8
CI
  0
LINE
  5
107E86
  8
B2P-L-LINK
 10
0.1572687971233382
 20
6.5595195212729438
 30
0.0
 11
0.2487892715330577
 21
6.3944122148527143
 31
0.0
  0
LINE
  5
107E87
  8
B2P-L-LINK
 10
0.0298222976809273
 20
6.5960642169191681
 30
0.0
 11
0.1572687971233382
 21
6.5595195212729438
 31
0.0
  0
LINE
  5
107E88
  8
B2P-L-LINK
 10
0.7942090742754786
 20
6.5595195212729482
 30
0.0
 11
0.7026885998657573
 21
6.3944122148527143
 31
0.0
  0
LINE
  5
107E89
  8
B2P-L-LINK
 10
0.9216555737178904
 20
6.5960642169191717
 30
0.0
 11
0.7942090742754786
 21
6.5595195212729482
 31
0.0
  0
LINE
  5
107E8A
  8
B-2P-C
 10
1.1007389356994031
 20
6.6364122148526974
 30
0.0
 11
1.1007389356994031
 21
6.5715696286459284
 31
0.0
  0
LINE
  5
107E8B
  8
B2P-L-LINK
 10
1.8244975689548051
 20
6.6133769952072612
 30
0.0
 11
1.7031234092549119
 21
6.3944122148527143
 31
0.0
  0
LINE
  5
107E90
  8
LINKS
 10
4.1152906046379432
 20
5.8865671172409
 30
0.0
 11
4.1152906046379432
 21
7.0098187602138502
 31
0.0
  0
LINE
  5
107E91
  8
LINKS
 10
4.8452906046379427
 20
5.8865671172409
 30
0.0
 11
4.8452906046379471
 21
7.0098187602138502
 31
0.0
  0
LINE
  5
107E92
  8
BT-2P-BODY
 10
4.1082906046379479
 20
6.3944122148527143
 30
0.0
 11
4.1082906046379408
 21
5.7694122148527169
 31
0.0
  0
LINE
  5
107E93
  8
BT-2P-BODY
 10
4.8522906046379406
 20
6.3944122148527116
 30
0.0
 11
4.8522906046379406
 21
5.769412214852716
 31
0.0
  0
LINE
  5
107E94
  8
BT-2P-BODY
 10
3.4802906046379412
 20
5.5194122148526858
 30
0.0
 11
5.4802906046379407
 21
5.5194122148526947
 31
0.0
  0
LINE
  5
107E95
  8
LINKS
 10
4.1152906046379432
 20
5.8865671172409044
 30
0.0
 11
4.8452906046379427
 21
5.8865671172409044
 31
0.0
  0
LINE
  5
107E96
  8
BT-2P-BODY
 10
4.8522906046379406
 20
5.769412214852716
 30
0.0
 11
4.1082906046379408
 21
5.7694122148527169
 31
0.0
  0
CIRCLE
  5
107E97
  8
HID
 10
5.1677906046379478
 20
5.220412214852713
 30
0.0
 40
0.2150844733253407
  0
CIRCLE
  5
107E98
  8
CI
 10
5.1677906046379478
 20
5.220412214852713
 30
0.0
 40
0.1685
  0
LINE
  5
107E99
  8
CENTER
 10
5.0777906046379453
 20
5.220412214852713
 30
0.0
 11
5.257790604637945
 21
5.220412214852713
 31
0.0
  0
CIRCLE
  5
107E9A
  8
CI
 10
5.1677906046379478
 20
5.220412214852713
 30
0.0
 40
0.046875
  0
LINE
  5
107E9B
  8
CENTER
 10
5.1677906046379407
 20
5.1304122148527131
 30
0.0
 11
5.1677906046379407
 21
5.310412214852712
 31
0.0
  0
LINE
  5
107E9C
  8
BT-2P-JAW-BLK
 10
3.7303797767424931
 20
7.3003672895729874
 30
0.0
 11
5.2302014325333817
 21
7.3003672895729874
 31
0.0
  0
LINE
  5
107E9D
  8
BT-2P-JAW-BLK
 10
5.2302014325334101
 20
6.6133672964429886
 30
0.0
 11
4.8552014362833988
 21
6.6133672964429886
 31
0.0
  0
LINE
  5
107E9E
  8
BT-2P-BODY
 10
5.4802906046379407
 20
6.3944122148527116
 30
0.0
 11
4.8522906046379406
 21
6.3944122148527116
 31
0.0
  0
LINE
  5
107E9F
  8
BT-2P-JAW-BLK
 10
3.7303797767424931
 20
7.3003672895729874
 30
0.0
 11
3.7303797767424931
 21
6.6133672964429886
 31
0.0
  0
LINE
  5
107EA0
  8
BT-2P-BODY
 10
4.1082906046379479
 20
6.3944122148527143
 30
0.0
 11
3.4802906046379412
 21
6.3944122148527143
 31
0.0
  0
LINE
  5
107EA1
  8
BT-2P-JAW-BLK
 10
3.7303797767424789
 20
6.6133672964429886
 30
0.0
 11
4.1053797729924897
 21
6.6133672964429886
 31
0.0
  0
LINE
  5
107EA2
  8
BT-2P-JAW-BLK
 10
4.1053797729925039
 20
7.0503672920729894
 30
0.0
 11
4.1053797729924897
 21
6.6133672964429886
 31
0.0
  0
LINE
  5
107EA3
  8
BT-2P-JAW-BLK
 10
4.8552014362833846
 20
7.0503672920729894
 30
0.0
 11
4.8552014362833846
 21
6.6133672964429886
 31
0.0
  0
POINT
  5
107EA4
  8
BT-2P-JAW-BLK
 10
4.1053797729924897
 20
6.6133672964429886
 30
0.0
  0
LINE
  5
107EA5
  8
LINKS
 10
4.1152906046379432
 20
6.8759063003556804
 30
0.0
 11
4.8452906046379471
 21
6.8759063003556804
 31
0.0
  0
LINE
  5
107EA6
  8
LINKS
 10
4.1152906046379432
 20
7.0098187602138502
 30
0.0
 11
4.8452906046379471
 21
7.0098187602138502
 31
0.0
  0
LINE
  5
107EA7
  8
BT-2P-JAW-BLK
 10
4.1053797729924897
 20
7.0503672920729894
 30
0.0
 11
4.8552014362833846
 21
7.0503672920729894
 31
0.0
  0
LINE
  5
107EA8
  8
BT-2P-JAW-BLK
 10
5.2302014325333817
 20
7.3003672895729874
 30
0.0
 11
5.2302014325333817
 21
6.6133672964429886
 31
0.0
  0
ENDSEC
  0
EOF
