  0
SECTION
  2
HEADER
  9
$ACADVER
  1
AC1009
  9
$INSBASE
 10
0.0
 20
0.0
 30
0.0
  9
$EXTMIN
 10
-0.8256184435882616
 20
-8.6138393152568078
 30
0.0
  9
$EXTMAX
 10
6.018241914757728
 20
0.0826410344046078
 30
0.0
  9
$LIMMIN
 10
0.0
 20
0.0
  9
$LIMMAX
 10
12.0
 20
9.0
  9
$ORTHOMODE
 70
     0
  9
$REGENMODE
 70
     1
  9
$FILLMODE
 70
     1
  9
$QTEXTMODE
 70
     0
  9
$MIRRTEXT
 70
     1
  9
$DRAGMODE
 70
     2
  9
$LTSCALE
 40
0.5
  9
$OSMODE
 70
     5
  9
$ATTMODE
 70
     1
  9
$TEXTSIZE
 40
0.156
  9
$TRACEWID
 40
0.05
  9
$TEXTSTYLE
  7
ROMANS
  9
$CLAYER
  8
BT-2P-BODY
  9
$CELTYPE
  6
BYLAYER
  9
$CECOLOR
 62
   256
  9
$DIMSCALE
 40
0.625
  9
$DIMASZ
 40
0.18
  9
$DIMEXO
 40
0.09
  9
$DIMDLI
 40
0.38
  9
$DIMRND
 40
0.0
  9
$DIMDLE
 40
0.0
  9
$DIMEXE
 40
0.18
  9
$DIMTP
 40
0.0
  9
$DIMTM
 40
0.0
  9
$DIMTXT
 40
0.156
  9
$DIMCEN
 40
0.09
  9
$DIMTSZ
 40
0.0
  9
$DIMTOL
 70
     0
  9
$DIMLIM
 70
     0
  9
$DIMTIH
 70
     1
  9
$DIMTOH
 70
     1
  9
$DIMSE1
 70
     0
  9
$DIMSE2
 70
     0
  9
$DIMTAD
 70
     0
  9
$DIMZIN
 70
     4
  9
$DIMBLK
  1

  9
$DIMASO
 70
     1
  9
$DIMSHO
 70
     1
  9
$DIMPOST
  1

  9
$DIMAPOST
  1

  9
$DIMALT
 70
     0
  9
$DIMALTD
 70
     2
  9
$DIMALTF
 40
25.399999999999999
  9
$DIMLFAC
 40
1.0
  9
$DIMTOFL
 70
     0
  9
$DIMTVP
 40
0.0
  9
$DIMTIX
 70
     0
  9
$DIMSOXD
 70
     0
  9
$DIMSAH
 70
     0
  9
$DIMBLK1
  1

  9
$DIMBLK2
  1

  9
$DIMSTYLE
  2
STANDARD
  9
$DIMCLRD
 70
   256
  9
$DIMCLRE
 70
   256
  9
$DIMCLRT
 70
   256
  9
$DIMTFAC
 40
1.0
  9
$DIMGAP
 40
0.09
  9
$LUNITS
 70
     2
  9
$LUPREC
 70
     4
  9
$SKETCHINC
 40
0.1
  9
$FILLETRAD
 40
0.0
  9
$AUNITS
 70
     0
  9
$AUPREC
 70
     2
  9
$MENU
  1
acad
  9
$ELEVATION
 40
0.0
  9
$PELEVATION
 40
0.0
  9
$THICKNESS
 40
0.0
  9
$LIMCHECK
 70
     0
  9
$BLIPMODE
 70
     0
  9
$CHAMFERA
 40
0.0
  9
$CHAMFERB
 40
0.0
  9
$SKPOLY
 70
     0
  9
$TDCREATE
 40
2452957.5735507049
  9
$TDUPDATE
 40
2453193.5655508451
  9
$TDINDWG
 40
0.0291650463
  9
$TDUSRTIMER
 40
0.0291643171
  9
$USRTIMER
 70
     1
  9
$ANGBASE
 50
0.0
  9
$ANGDIR
 70
     0
  9
$PDMODE
 70
     0
  9
$PDSIZE
 40
0.0
  9
$PLINEWID
 40
0.0
  9
$COORDS
 70
     0
  9
$SPLFRAME
 70
     0
  9
$SPLINETYPE
 70
     6
  9
$SPLINESEGS
 70
     8
  9
$ATTDIA
 70
     0
  9
$ATTREQ
 70
     1
  9
$HANDLING
 70
 12289
  9
$HANDSEED
  5
108815
  9
$SURFTAB1
 70
    15
  9
$SURFTAB2
 70
    15
  9
$SURFTYPE
 70
     6
  9
$SURFU
 70
     6
  9
$SURFV
 70
     6
  9
$UCSNAME
  2
TOP
  9
$UCSORG
 10
0.0
 20
0.0
 30
0.0
  9
$UCSXDIR
 10
1.0
 20
0.0
 30
0.0
  9
$UCSYDIR
 10
0.0
 20
1.0
 30
0.0
  9
$PUCSNAME
  2

  9
$PUCSORG
 10
0.0
 20
0.0
 30
0.0
  9
$PUCSXDIR
 10
1.0
 20
0.0
 30
0.0
  9
$PUCSYDIR
 10
0.0
 20
1.0
 30
0.0
  9
$USERI1
 70
     0
  9
$USERI2
 70
     0
  9
$USERI3
 70
     0
  9
$USERI4
 70
     0
  9
$USERI5
 70
     0
  9
$USERR1
 40
0.0
  9
$USERR2
 40
0.0
  9
$USERR3
 40
0.0
  9
$USERR4
 40
0.0
  9
$USERR5
 40
0.0
  9
$WORLDVIEW
 70
     1
  9
$SHADEDGE
 70
     3
  9
$SHADEDIF
 70
    70
  9
$TILEMODE
 70
     1
  9
$MAXACTVP
 70
    15
  9
$PLIMCHECK
 70
     0
  9
$PEXTMIN
 10
1.0000000000000000E+020
 20
1.0000000000000000E+020
 30
1.0000000000000000E+020
  9
$PEXTMAX
 10
-1.0000000000000000E+020
 20
-1.0000000000000000E+020
 30
-1.0000000000000000E+020
  9
$PLIMMIN
 10
0.0
 20
0.0
  9
$PLIMMAX
 10
12.0
 20
9.0
  9
$UNITMODE
 70
     0
  9
$VISRETAIN
 70
     0
  9
$PLINEGEN
 70
     0
  9
$PSLTSCALE
 70
     1
  0
ENDSEC
  0
SECTION
  2
TABLES
  0
TABLE
  2
VPORT
 70
     3
  0
VPORT
  2
*ACTIVE
 70
     0
 10
0.0
 20
0.0
 11
1.0
 21
1.0
 12
0.4595923822906185
 22
-2.0193576530890609
 13
0.0
 23
0.0
 14
1.0
 24
1.0
 15
0.0
 25
0.0
 16
0.0
 26
0.0
 36
1.0
 17
2.1367081379429198
 27
-2.2466461518772092
 37
1.552034160738883
 40
8.782266866786669
 41
1.7560975609756091
 42
50.0
 43
0.0
 44
0.0
 50
0.0
 51
0.0
 71
     0
 72
   100
 73
     1
 74
     0
 75
     0
 76
     0
 77
     0
 78
     0
  0
ENDTAB
  0
TABLE
  2
LTYPE
 70
    21
  0
LTYPE
  2
CONTINUOUS
 70
     0
  3
Solid line
 72
    65
 73
     0
 40
0.0
  0
LTYPE
  2
HIDDEN
 70
     0
  3
__ __ __ __ __ __ __ __ __ __ __ __ __ __ __ __
 72
    65
 73
     2
 40
0.375
 49
0.25
 49
-0.125
  0
LTYPE
  2
HIDDEN2
 70
     0
  3
_ _ _ _ _ _ _ _ _ _ _ _ _ _ _ _ _ _ _ _ _ _ _ _
 72
    65
 73
     2
 40
0.1875
 49
0.125
 49
-0.0625
  0
LTYPE
  2
CENTER
 70
     0
  3
____ _ ____ _ ____ _ ____ _ ____ _ ____ _ ____ 
 72
    65
 73
     4
 40
2.0
 49
1.25
 49
-0.25
 49
0.25
 49
-0.25
  0
LTYPE
  2
CENTER2
 70
     0
  3
___ _ ___ _ ___ _ ___ _ ___ _ ___ _ ___ _ ___ _
 72
    65
 73
     4
 40
1.125
 49
0.75
 49
-0.125
 49
0.125
 49
-0.125
  0
LTYPE
  2
CENTERX2
 70
     0
  3
________  __  ________  __  ________  __  _____
 72
    65
 73
     4
 40
4.0
 49
2.5
 49
-0.5
 49
0.5
 49
-0.5
  0
LTYPE
  2
DASHDOT
 70
     0
  3
__ . __ . __ . __ . __ . __ . __ . __ . __ . __
 72
    65
 73
     4
 40
1.0
 49
0.5
 49
-0.25
 49
0.0
 49
-0.25
  0
LTYPE
  2
DASHDOT2
 70
     0
  3
_._._._._._._._._._._._._._._._._._._._._._._._
 72
    65
 73
     4
 40
0.5
 49
0.25
 49
-0.125
 49
0.0
 49
-0.125
  0
LTYPE
  2
DASHDOTX2
 70
     0
  3
____  .  ____  .  ____  .  ____  .  ____  .  __
 72
    65
 73
     4
 40
2.0
 49
1.0
 49
-0.5
 49
0.0
 49
-0.5
  0
LTYPE
  2
DASHED
 70
     0
  3
__ __ __ __ __ __ __ __ __ __ __ __ __ __ __ __
 72
    65
 73
     2
 40
0.75
 49
0.5
 49
-0.25
  0
LTYPE
  2
DASHED2
 70
     0
  3
_ _ _ _ _ _ _ _ _ _ _ _ _ _ _ _ _ _ _ _ _ _ _ _
 72
    65
 73
     2
 40
0.375
 49
0.25
 49
-0.125
  0
LTYPE
  2
DASHEDX2
 70
     0
  3
____  ____  ____  ____  ____  ____  ____  ____ 
 72
    65
 73
     2
 40
1.5
 49
1.0
 49
-0.5
  0
LTYPE
  2
DOT
 70
     0
  3
. . . . . . . . . . . . . . . . . . . . . . . .
 72
    65
 73
     2
 40
0.25
 49
0.0
 49
-0.25
  0
LTYPE
  2
DOT2
 70
     0
  3
...............................................
 72
    65
 73
     2
 40
0.125
 49
0.0
 49
-0.125
  0
LTYPE
  2
DOTX2
 70
     0
  3
.  .  .  .  .  .  .  .  .  .  .  .  .  .  .  . 
 72
    65
 73
     2
 40
0.5
 49
0.0
 49
-0.5
  0
LTYPE
  2
HIDDENX2
 70
     0
  3
____ ____ ____ ____ ____ ____ ____ ____ ____ __
 72
    65
 73
     2
 40
0.75
 49
0.5
 49
-0.25
  0
LTYPE
  2
PHANTOM
 70
     0
  3
______  __  __  ______  __  __  ______  __  __ 
 72
    65
 73
     6
 40
2.5
 49
1.25
 49
-0.25
 49
0.25
 49
-0.25
 49
0.25
 49
-0.25
  0
LTYPE
  2
PHANTOM2
 70
     0
  3
___ _ _ ___ _ _ ___ _ _ ___ _ _ ___ _ _ ___ _ _
 72
    65
 73
     6
 40
1.25
 49
0.625
 49
-0.125
 49
0.125
 49
-0.125
 49
0.125
 49
-0.125
  0
LTYPE
  2
PHANTOMX2
 70
     0
  3
____________    ____    ____    ____________   
 72
    65
 73
     6
 40
5.0
 49
2.5
 49
-0.5
 49
0.5
 49
-0.5
 49
0.5
 49
-0.5
  0
LTYPE
  2
ASULTYPE
 70
     0
  3
Solid line
 72
    65
 73
     2
 40
3.0
 49
2.5
 49
0.5
  0
LTYPE
  2
ASVLTYPE
 70
     0
  3
__ __ __ __ __ __ __ __ __ __ __ __ __ __ __ __ __ __ __ __ __
 72
    65
 73
     2
 40
0.75
 49
0.5
 49
-0.25
  0
ENDTAB
  0
TABLE
  2
LAYER
 70
    13
  0
LAYER
  2
0
 70
     0
 62
     7
  6
CONTINUOUS
  0
LAYER
  2
PART
 70
     0
 62
     3
  6
CONTINUOUS
  0
LAYER
  2
C
 70
     0
 62
     2
  6
CENTER
  0
LAYER
  2
TEXT
 70
     0
 62
     7
  6
CONTINUOUS
  0
LAYER
  2
CENTER
 70
     0
 62
     2
  6
CENTER
  0
LAYER
  2
CI
 70
     0
 62
     8
  6
CONTINUOUS
  0
LAYER
  2
HID
 70
     0
 62
     4
  6
HIDDEN
  0
LAYER
  2
LINKS
 70
     0
 62
     8
  6
CONTINUOUS
  0
LAYER
  2
BT-2P-BODY
 70
     0
 62
   252
  6
CONTINUOUS
  0
LAYER
  2
B-2P-C
 70
     0
 62
    30
  6
CONTINUOUS
  0
LAYER
  2
B-2P-IL
 70
     0
 62
   253
  6
CONTINUOUS
  0
LAYER
  2
B2P-L-LINK
 70
     0
 62
   254
  6
CONTINUOUS
  0
LAYER
  2
B-2P-VERT-JAW
 70
     0
 62
    11
  6
CONTINUOUS
  0
ENDTAB
  0
TABLE
  2
STYLE
 70
    11
  0
STYLE
  2
STANDARD
 70
     0
 40
0.0
 41
0.8
 50
0.0
 71
     0
 42
0.2067340150288407
  3
SIMPLEX.SHX
  4

  0
STYLE
  2
ASHADE
 70
     0
 40
0.2
 41
1.0
 50
0.0
 71
     0
 42
0.2
  3
simplex
  4

  0
STYLE
  2
ROMANS
 70
     0
 40
0.0
 41
1.0
 50
0.0
 71
     0
 42
0.156
  3
romans.shx
  4

  0
STYLE
  2
ITALICC
 70
     0
 40
0.0
 41
1.0
 50
0.0
 71
     0
 42
0.156
  3
italicc
  4

  0
STYLE
  2
ROMAND
 70
     0
 40
0.0
 41
1.0
 50
0.0
 71
     0
 42
0.156
  3
romand
  4

  0
STYLE
  2
ITALICT
 70
     0
 40
0.0
 41
1.0
 50
0.0
 71
     0
 42
0.156
  3
italict
  4

  0
STYLE
  2
1
 70
     0
 40
0.0
 41
1.0
 50
0.0
 71
     0
 42
0.156
  3
ROMANS
  4

  0
STYLE
  2
2
 70
     0
 40
0.0
 41
1.0
 50
0.0
 71
     0
 42
0.156
  3
ROMAND
  4

  0
STYLE
  2
3
 70
     0
 40
0.0
 41
1.0
 50
0.0
 71
     0
 42
0.156
  3
ITALICC
  4

  0
STYLE
  2
4
 70
     0
 40
0.0
 41
1.0
 50
0.0
 71
     0
 42
0.156
  3
ITALICT
  4

  0
STYLE
  2
ADESK1
 70
     0
 40
0.0
 41
1.0
 50
0.0
 71
     0
 42
0.156
  3
romans.shx
  4

  0
ENDTAB
  0
TABLE
  2
VIEW
 70
     1
  0
VIEW
  2
LL
 70
     0
 40
9.8243439384828406
 10
1.4685819233133679
 20
0.0606082936169221
 41
11.60077376152519
 11
0.6123724356957946
 21
-0.6123724356957946
 31
0.5
 12
2.1367081379429198
 22
-2.2466461518772092
 32
1.552034160738883
 42
50.0
 43
-5.8312182741116763
 44
-5.8312182741116763
 50
0.0
 71
     0
  0
ENDTAB
  0
TABLE
  2
UCS
 70
     6
  0
UCS
  2
FRONT
 70
     0
 10
0.0
 20
0.0
 30
0.0
 11
1.0
 21
0.0
 31
0.0
 12
0.0
 22
0.0
 32
1.0
  0
UCS
  2
RSIDE
 70
     0
 10
0.0
 20
0.0
 30
0.0
 11
0.0
 21
1.0
 31
0.0
 12
0.0
 22
0.0
 32
1.0
  0
UCS
  2
LSIDE
 70
     0
 10
0.0
 20
0.0
 30
0.0
 11
0.0
 21
-1.0
 31
0.0
 12
0.0
 22
0.0
 32
1.0
  0
UCS
  2
BOTTOM
 70
     0
 10
0.0
 20
0.0
 30
0.0
 11
1.0
 21
0.0
 31
0.0
 12
0.0
 22
-1.0
 32
0.0
  0
UCS
  2
TOP
 70
     0
 10
0.0
 20
0.0
 30
0.0
 11
1.0
 21
0.0
 31
0.0
 12
0.0
 22
1.0
 32
0.0
  0
UCS
  2
BORDER
 70
     0
 10
0.0
 20
0.0
 30
0.0
 11
0.7071067811865476
 21
0.7071067811865476
 31
0.0
 12
-0.3535533905932738
 22
0.3535533905932738
 32
0.8660254037844385
  0
ENDTAB
  0
TABLE
  2
APPID
 70
     5
  0
APPID
  2
ACAD
 70
     0
  0
APPID
  2
AD_DRAW
 70
     0
  0
APPID
  2
DESIGNERASSEMBLIES
 70
     0
  0
APPID
  2
MCAD_NO_VIS
 70
     0
  0
APPID
  2
ASURF_PCURVE_APPNAME
 70
     0
  0
ENDTAB
  0
TABLE
  2
DIMSTYLE
 70
     4
  0
DIMSTYLE
  2
STANDARD
 70
     0
  3

  4

  5

  6

  7

 40
1.0
 41
0.18
 42
0.0625
 43
0.38
 44
0.18
 45
0.0
 46
0.0
 47
0.0
 48
0.0
140
0.156
141
0.09
142
0.0
143
25.399999999999999
144
1.0
145
0.0
146
1.0
147
0.09
 71
     0
 72
     0
 73
     1
 74
     1
 75
     0
 76
     0
 77
     0
 78
     4
170
     0
171
     2
172
     0
173
     0
174
     0
175
     0
176
   256
177
   256
178
   256
  0
DIMSTYLE
  2
STANDARD$0
 70
     0
  3

  4

  5

  6

  7

 40
1.0
 41
0.18
 42
0.063
 43
0.38
 44
0.18
 45
0.0
 46
0.0
 47
0.0
 48
0.0
140
0.156
141
0.09
142
0.0
143
25.399999999999999
144
1.0
145
0.0
146
1.0
147
0.09
 71
     0
 72
     0
 73
     1
 74
     1
 75
     0
 76
     0
 77
     0
 78
     4
170
     0
171
     2
172
     0
173
     0
174
     0
175
     0
176
   256
177
   256
178
   256
  0
DIMSTYLE
  2
STANDARD$6
 70
     0
  3

  4

  5

  6

  7

 40
1.0
 41
0.18
 42
0.063
 43
0.38
 44
0.18
 45
0.0
 46
0.0
 47
0.0
 48
0.0
140
0.156
141
0.09
142
0.0
143
25.399999999999999
144
1.0
145
0.0
146
1.0
147
0.09
 71
     0
 72
     0
 73
     1
 74
     1
 75
     0
 76
     0
 77
     0
 78
     4
170
     0
171
     2
172
     0
173
     0
174
     0
175
     0
176
     0
177
   256
178
   256
  0
DIMSTYLE
  2
STANDARD$7
 70
     0
  3

  4

  5

  6

  7

 40
1.0
 41
0.18
 42
0.063
 43
0.38
 44
0.18
 45
0.0
 46
0.0
 47
0.0
 48
0.0
140
0.156
141
0.09
142
0.0
143
25.399999999999999
144
1.0
145
0.0
146
1.0
147
0.09
 71
     0
 72
     0
 73
     1
 74
     1
 75
     0
 76
     0
 77
     0
 78
     4
170
     0
171
     2
172
     0
173
     0
174
     0
175
     0
176
   256
177
     0
178
   256
  0
ENDTAB
  0
ENDSEC
  0
SECTION
  2
BLOCKS
  0
BLOCK
  8
0
  2
$MODEL_SPACE
 70
     0
 10
0.0
 20
0.0
 30
0.0
  3
$MODEL_SPACE
  1

  0
ENDBLK
  5
1069DE
  8
0
  0
BLOCK
 67
     1
  8
0
  2
$PAPER_SPACE
 70
     0
 10
0.0
 20
0.0
 30
0.0
  3
$PAPER_SPACE
  1

  0
ENDBLK
  5
1069DC
 67
     1
  8
0
  0
BLOCK
  8
0
  2
*U0
 70
     1
 10
0.0
 20
0.0
 30
0.0
  3
*U0
  1

  0
ENDBLK
  5
106A2B
  8
0
  0
BLOCK
  8
0
  2
BT-2P-2-JAW-END
 70
     0
 10
0.0
 20
0.0
 30
0.0
  3
BT-2P-2-JAW-END
  1

  0
CIRCLE
  5
107C0C
  8
B-2P-VERT-JAW
 10
15.297220499866921
 20
11.892014665331899
 30
0.0
 40
0.1325
  0
LINE
  5
107C0D
  8
B-2P-VERT-JAW
 10
14.672220499866921
 20
10.142014665331899
 30
0.0
 11
14.672220499866921
 21
12.142014665331899
 31
0.0
  0
LINE
  5
107C0E
  8
B-2P-VERT-JAW
 10
15.922220499866921
 20
10.142014665331899
 30
0.0
 11
15.922220499866921
 21
12.142014665331899
 31
0.0
  0
LINE
  5
107C0F
  8
B-2P-VERT-JAW
 10
15.66922049986692
 20
10.142014665331899
 30
0.0
 11
15.66922049986692
 21
10.5800146653319
 31
0.0
  0
LINE
  5
107C10
  8
B-2P-VERT-JAW
 10
14.925220499866921
 20
10.142014665331899
 30
0.0
 11
14.925220499866921
 21
10.5800146653319
 31
0.0
  0
LINE
  5
107C11
  8
B-2P-VERT-JAW
 10
14.925220499866921
 20
10.142014665331899
 30
0.0
 11
14.672220499866921
 21
10.142014665331899
 31
0.0
  0
LINE
  5
107C12
  8
B-2P-VERT-JAW
  6
HIDDEN
 10
14.672220499866921
 20
10.2050146653319
 30
0.0
 11
14.925220499866921
 21
10.2050146653319
 31
0.0
  0
LINE
  5
107C13
  8
B-2P-VERT-JAW
 10
15.922220499866921
 20
10.142014665331899
 30
0.0
 11
15.66922049986692
 21
10.142014665331899
 31
0.0
  0
LINE
  5
107C14
  8
B-2P-VERT-JAW
  6
HIDDEN
 10
15.66922049986692
 20
10.2050146653319
 30
0.0
 11
15.922220499866921
 21
10.2050146653319
 31
0.0
  0
LINE
  5
107C15
  8
B-2P-VERT-JAW
  6
HIDDEN
 10
14.672220499866921
 20
10.767014665331899
 30
0.0
 11
15.922220499866921
 21
10.767014665331899
 31
0.0
  0
LINE
  5
107C16
  8
B-2P-VERT-JAW
 10
14.925220499866921
 20
10.5800146653319
 30
0.0
 11
15.66922049986692
 21
10.5800146653319
 31
0.0
  0
LINE
  5
107C17
  8
B-2P-VERT-JAW
  6
HIDDEN
 10
14.672220499866921
 20
10.454014665331901
 30
0.0
 11
14.925220499866921
 21
10.454014665331901
 31
0.0
  0
LINE
  5
107C18
  8
B-2P-VERT-JAW
  6
HIDDEN
 10
15.66922049986692
 20
10.454014665331901
 30
0.0
 11
15.922220499866921
 21
10.454014665331901
 31
0.0
  0
CIRCLE
  5
107C19
  8
B-2P-VERT-JAW
 10
15.297220499866921
 20
11.142014665331899
 30
0.0
 40
0.1325
  0
LINE
  5
107C1A
  8
B-2P-VERT-JAW
 10
14.672220499866921
 20
12.142014665331899
 30
0.0
 11
15.922220499866921
 21
12.142014665331899
 31
0.0
  0
ENDBLK
  5
107C1C
  8
0
  0
BLOCK
  8
0
  2
CEN-MRK
 70
     0
 10
0.0
 20
0.0
 30
0.0
  3
CEN-MRK
  1

  0
LINE
  5
107C1E
  8
C
 10
0.0
 20
0.5
 30
0.0
 11
0.0
 21
-0.5000000000000001
 31
0.0
  0
LINE
  5
107C1F
  8
C
 10
0.5000000000000002
 20
0.0
 30
0.0
 11
-0.5
 21
0.0
 31
0.0
  0
ENDBLK
  5
107C21
  8
0
  0
BLOCK
  8
0
  2
2P_2CLOSED
 70
     0
 10
0.0
 20
0.0
 30
0.0
  3
2P_2CLOSED
  1

  0
LINE
  5
107CD7
  8
B-2P-VERT-JAW
  6
HIDDEN
 10
10.25956049928136
 20
-1.5208838117926851
 30
0.0
 11
10.25956049928136
 21
-0.1458838117926859
 31
0.0
  0
LINE
  5
107CD8
  8
B-2P-VERT-JAW
  6
HIDDEN
 10
10.63456049928136
 20
-2.1458838117926851
 30
0.0
 11
10.63456049928136
 21
-0.1458838117926859
 31
0.0
  0
LINE
  5
107CD9
  8
B-2P-VERT-JAW
  6
HIDDEN
 10
8.0200327657817727
 20
-1.5208838117926851
 30
0.0
 11
8.0200327657817727
 21
-0.1458838117926859
 31
0.0
  0
LINE
  5
107CDA
  8
B-2P-VERT-JAW
  6
HIDDEN
 10
7.6450327657817718
 20
-2.1458838117926851
 30
0.0
 11
7.6450327657817718
 21
-0.1458838117926859
 31
0.0
  0
LINE
  5
107CDB
  8
B-2P-VERT-JAW
  6
HIDDEN
 10
8.6450327657817727
 20
-1.5208838117926851
 30
0.0
 11
8.6450327657817727
 21
-2.1458838117926851
 31
0.0
  0
LINE
  5
107CDC
  8
B-2P-VERT-JAW
  6
HIDDEN
 10
8.6450327657817727
 20
-2.1458838117926851
 30
0.0
 11
7.6450327657817718
 21
-2.1458838117926851
 31
0.0
  0
LINE
  5
107CDD
  8
B-2P-VERT-JAW
  6
HIDDEN
 10
8.0200327657817727
 20
-1.5208838117926851
 30
0.0
 11
8.6450327657817727
 21
-1.5208838117926851
 31
0.0
  0
LINE
  5
107CDE
  8
B-2P-VERT-JAW
  6
HIDDEN
 10
8.0200327657817727
 20
-1.278383811792686
 30
0.0
 11
7.6450327657817718
 21
-1.278383811792686
 31
0.0
  0
LINE
  5
107CDF
  8
B-2P-VERT-JAW
  6
HIDDEN
 10
8.0200327657817727
 20
-1.013383811792685
 30
0.0
 11
7.6450327657817718
 21
-1.013383811792685
 31
0.0
  0
LINE
  5
107CE0
  8
B-2P-VERT-JAW
  6
HIDDEN
 10
8.0200327657817727
 20
-0.5283838117926863
 30
0.0
 11
7.6450327657817718
 21
-0.5283838117926863
 31
0.0
  0
LINE
  5
107CE1
  8
B-2P-VERT-JAW
  6
HIDDEN
 10
9.6345604992813687
 20
-1.5208838117926851
 30
0.0
 11
9.6345604992813687
 21
-2.1458838117926851
 31
0.0
  0
LINE
  5
107CE2
  8
B-2P-VERT-JAW
  6
HIDDEN
 10
9.6345604992813687
 20
-2.1458838117926851
 30
0.0
 11
10.63456049928136
 21
-2.1458838117926851
 31
0.0
  0
LINE
  5
107CE3
  8
B-2P-VERT-JAW
  6
HIDDEN
 10
10.25956049928136
 20
-1.5208838117926851
 30
0.0
 11
9.6345604992813687
 21
-1.5208838117926851
 31
0.0
  0
LINE
  5
107CE4
  8
B-2P-VERT-JAW
  6
HIDDEN
 10
10.25956049928136
 20
-1.278383811792686
 30
0.0
 11
10.63456049928136
 21
-1.278383811792686
 31
0.0
  0
LINE
  5
107CE5
  8
B-2P-VERT-JAW
  6
HIDDEN
 10
10.25956049928136
 20
-1.013383811792685
 30
0.0
 11
10.63456049928136
 21
-1.013383811792685
 31
0.0
  0
LINE
  5
107CE6
  8
B-2P-VERT-JAW
  6
HIDDEN
 10
10.25956049928136
 20
-0.5283838117926863
 30
0.0
 11
10.63456049928136
 21
-0.5283838117926863
 31
0.0
  0
LINE
  5
107CE7
  8
B-2P-VERT-JAW
  6
HIDDEN
 10
8.0200327657817727
 20
-0.2633838117926857
 30
0.0
 11
7.6450327657817718
 21
-0.2633838117926857
 31
0.0
  0
LINE
  5
107CE8
  8
B-2P-VERT-JAW
  6
HIDDEN
 10
7.6450327657817718
 20
-0.1458838117926859
 30
0.0
 11
8.0200327657817727
 21
-0.1458838117926859
 31
0.0
  0
LINE
  5
107CE9
  8
B-2P-VERT-JAW
  6
HIDDEN
 10
10.25956049928136
 20
-0.2633838117926857
 30
0.0
 11
10.63456049928136
 21
-0.2633838117926857
 31
0.0
  0
LINE
  5
107CEA
  8
B-2P-VERT-JAW
  6
HIDDEN
 10
10.63456049928136
 20
-0.1458838117926859
 30
0.0
 11
10.25956049928136
 21
-0.1458838117926859
 31
0.0
  0
ENDBLK
  5
107CEC
  8
0
  0
BLOCK
  8
0
  2
2P_OPEN
 70
     0
 10
0.0
 20
0.0
 30
0.0
  3
2P_OPEN
  1

  0
LINE
  5
107CEE
  8
B-2P-VERT-JAW
 10
11.798186697048539
 20
-1.6035248461972931
 30
0.0
 11
11.798186697048539
 21
-0.2285248461972937
 31
0.0
  0
LINE
  5
107CEF
  8
B-2P-VERT-JAW
 10
11.423186697048539
 20
-2.2285248461972929
 30
0.0
 11
11.423186697048539
 21
-0.2285248461972937
 31
0.0
  0
LINE
  5
107CF0
  8
B-2P-VERT-JAW
 10
12.423186697048539
 20
-1.6035248461972931
 30
0.0
 11
12.423186697048539
 21
-2.2285248461972929
 31
0.0
  0
LINE
  5
107CF1
  8
B-2P-VERT-JAW
 10
12.423186697048539
 20
-2.2285248461972929
 30
0.0
 11
11.423186697048539
 21
-2.2285248461972929
 31
0.0
  0
LINE
  5
107CF2
  8
B-2P-VERT-JAW
 10
11.798186697048539
 20
-1.6035248461972931
 30
0.0
 11
12.423186697048539
 21
-1.6035248461972931
 31
0.0
  0
LINE
  5
107CF3
  8
B-2P-VERT-JAW
  6
HIDDEN
 10
11.798186697048539
 20
-1.361024846197294
 30
0.0
 11
11.423186697048539
 21
-1.361024846197294
 31
0.0
  0
LINE
  5
107CF4
  8
B-2P-VERT-JAW
  6
HIDDEN
 10
11.798186697048539
 20
-1.096024846197293
 30
0.0
 11
11.423186697048539
 21
-1.096024846197293
 31
0.0
  0
LINE
  5
107CF5
  8
B-2P-VERT-JAW
  6
HIDDEN
 10
11.798186697048539
 20
-0.6110248461972941
 30
0.0
 11
11.423186697048539
 21
-0.6110248461972941
 31
0.0
  0
LINE
  5
107CF6
  8
B-2P-VERT-JAW
  6
HIDDEN
 10
11.798186697048539
 20
-0.3460248461972935
 30
0.0
 11
11.423186697048539
 21
-0.3460248461972935
 31
0.0
  0
LINE
  5
107CF7
  8
B-2P-VERT-JAW
 10
11.423186697048539
 20
-0.2285248461972937
 30
0.0
 11
11.798186697048539
 21
-0.2285248461972937
 31
0.0
  0
LINE
  5
107CF8
  8
B-2P-VERT-JAW
 10
15.02540112741805
 20
-1.6035248461972931
 30
0.0
 11
15.02540112741805
 21
-0.2285248461972937
 31
0.0
  0
LINE
  5
107CF9
  8
B-2P-VERT-JAW
 10
15.40040112741805
 20
-2.2285248461972929
 30
0.0
 11
15.40040112741805
 21
-0.2285248461972937
 31
0.0
  0
LINE
  5
107CFA
  8
B-2P-VERT-JAW
 10
14.40040112741805
 20
-1.6035248461972931
 30
0.0
 11
14.40040112741805
 21
-2.2285248461972929
 31
0.0
  0
LINE
  5
107CFB
  8
B-2P-VERT-JAW
 10
14.40040112741805
 20
-2.2285248461972929
 30
0.0
 11
15.40040112741805
 21
-2.2285248461972929
 31
0.0
  0
LINE
  5
107CFC
  8
B-2P-VERT-JAW
 10
15.02540112741805
 20
-1.6035248461972931
 30
0.0
 11
14.40040112741805
 21
-1.6035248461972931
 31
0.0
  0
LINE
  5
107CFD
  8
B-2P-VERT-JAW
  6
HIDDEN
 10
15.02540112741805
 20
-1.361024846197294
 30
0.0
 11
15.40040112741805
 21
-1.361024846197294
 31
0.0
  0
LINE
  5
107CFE
  8
B-2P-VERT-JAW
  6
HIDDEN
 10
15.02540112741805
 20
-1.096024846197293
 30
0.0
 11
15.40040112741805
 21
-1.096024846197293
 31
0.0
  0
LINE
  5
107CFF
  8
B-2P-VERT-JAW
  6
HIDDEN
 10
15.02540112741805
 20
-0.6110248461972941
 30
0.0
 11
15.40040112741805
 21
-0.6110248461972941
 31
0.0
  0
LINE
  5
107D00
  8
B-2P-VERT-JAW
  6
HIDDEN
 10
15.02540112741805
 20
-0.3460248461972935
 30
0.0
 11
15.40040112741805
 21
-0.3460248461972935
 31
0.0
  0
LINE
  5
107D01
  8
B-2P-VERT-JAW
 10
15.40040112741805
 20
-0.2285248461972937
 30
0.0
 11
15.02540112741805
 21
-0.2285248461972937
 31
0.0
  0
ENDBLK
  5
107D03
  8
0
  0
ENDSEC
  0
SECTION
  2
ENTITIES
  0
CIRCLE
  5
107E11
  8
HID
 10
5.7057419147577209
 20
-4.1614647803545441
 30
0.0
 40
0.2150844733253407
  0
LINE
  5
107E13
  8
BT-2P-BODY
 10
4.0182419147577209
 20
-4.7104647803545427
 30
0.0
 11
4.0182419147577209
 21
-2.2184647803545441
 31
0.0
  0
LINE
  5
107E14
  8
BT-2P-BODY
 10
6.0182419147577209
 20
-4.7104647803545427
 30
0.0
 11
6.018241914757728
 21
-2.2184647803545459
 31
0.0
  0
CIRCLE
  5
107E16
  8
BT-2P-BODY
 10
2.0379887715964959
 20
-4.0309647803545401
 30
0.0
 40
0.1005
  0
CIRCLE
  5
107E17
  8
HID
 10
2.0379887715964959
 20
-4.0309647803545401
 30
0.0
 40
0.125
  0
LINE
  5
107E18
  8
BT-2P-BODY
 10
2.2879887715964928
 20
-4.7104647803545427
 30
0.0
 11
2.2879887715964928
 21
-3.0934647803545481
 31
0.0
  0
INSERT
  5
107E19
  8
C
  2
CEN-MRK
 10
2.0379887715964959
 20
-4.0309647803545401
 30
0.0
 41
0.3125
 42
0.3125
 43
0.3125
  0
CIRCLE
  5
107E1A
  8
BT-2P-BODY
 10
0.2879887715964955
 20
-4.0309647803545392
 30
0.0
 40
0.1005
  0
CIRCLE
  5
107E1B
  8
HID
 10
0.2879887715964955
 20
-4.0309647803545392
 30
0.0
 40
0.125
  0
LINE
  5
107E1C
  8
BT-2P-BODY
 10
0.0379887715964937
 20
-4.7104647803545427
 30
0.0
 11
0.0379887715964937
 21
-3.0934647803545481
 31
0.0
  0
INSERT
  5
107E1D
  8
C
  2
CEN-MRK
 10
0.2879887715964955
 20
-4.0309647803545392
 30
0.0
 41
0.3125
 42
0.3125
 43
0.3125
  0
LINE
  5
107E1F
  8
C
  6
CENTER2
 10
5.0182419147577209
 20
-2.0279694672482931
 30
0.0
 11
5.0182419147577209
 21
-4.843464780354549
 31
0.0
  0
LINE
  5
107E21
  8
BT-2P-BODY
 10
0.0379887715964937
 20
-4.7104647803545427
 30
0.0
 11
2.2879887715964928
 21
-4.7104647803545427
 31
0.0
  0
LINE
  5
107E22
  8
BT-2P-BODY
 10
4.0182419147577209
 20
-5.363839315256806
 30
0.0
 11
4.0182419147577049
 21
-8.6138393152568078
 31
0.0
  0
LINE
  5
107E23
  8
BT-2P-BODY
 10
6.0182419147577191
 20
-8.6138393152568078
 30
0.0
 11
6.018241914757712
 21
-5.3638393152568069
 31
0.0
  0
CIRCLE
  5
107E24
  8
HID
 10
5.0182419147577209
 20
-6.9888393152568042
 30
0.0
 40
0.8625000000000007
  0
CIRCLE
  5
107E25
  8
BT-2P-BODY
 10
5.0182419147577209
 20
-6.9888393152568042
 30
0.0
 40
0.8129999999999999
  0
LINE
  5
107E2B
  8
BT-2P-BODY
 10
4.0182419147577191
 20
-8.113839315256806
 30
0.0
 11
6.0182419147577191
 21
-8.1138393152568078
 31
0.0
  0
LINE
  5
107E2C
  8
BT-2P-BODY
 10
6.0182419147577191
 20
-8.6138393152568078
 30
0.0
 11
4.0182419147577191
 21
-8.6138393152568078
 31
0.0
  0
INSERT
  5
107E2D
  8
C
  2
CEN-MRK
 10
5.8307419147577191
 20
-7.8638393152568042
 30
0.0
 41
0.3125
 42
0.3125
 43
0.3125
 50
90.0
  0
CIRCLE
  5
107E2E
  8
HID
 10
5.8307419147577191
 20
-7.8638393152568042
 30
0.0
 40
0.125
  0
CIRCLE
  5
107E2F
  8
BT-2P-BODY
 10
5.8307419147577191
 20
-7.8638393152568042
 30
0.0
 40
0.1005
  0
CIRCLE
  5
107E31
  8
BT-2P-BODY
 10
4.205741914757712
 20
-7.8638393152568042
 30
0.0
 40
0.09375
  0
INSERT
  5
107E32
  8
C
  2
CEN-MRK
 10
4.205741914757712
 20
-7.8638393152568042
 30
0.0
 41
0.234375
 42
0.234375
 43
0.234375
 50
90.0
  0
TEXT
  5
107E34
  8
TEXT
 10
0.6563261765848463
 20
-7.1095740152623756
 30
0.0
 40
0.156
  1
BT-2P-A
  7
ADESK1
  0
INSERT
  5
107E35
  8
C
  2
CEN-MRK
 10
5.0182419147577209
 20
-6.9888393152568042
 30
0.0
 41
0.5
 42
0.5
 43
0.5
 50
90.0
  0
LINE
  5
107E36
  8
BT-2P-BODY
 10
4.0182419147577209
 20
-5.8638393152568069
 30
0.0
 11
6.0182419147577191
 21
-5.8638393152568069
 31
0.0
  0
LINE
  5
107E37
  8
BT-2P-BODY
 10
4.0182419147577209
 20
-5.363839315256806
 30
0.0
 11
6.0182419147577191
 21
-5.3638393152568069
 31
0.0
  0
INSERT
  5
107E39
  8
C
  2
CEN-MRK
 10
5.8307419147577209
 20
-6.1138393152568051
 30
0.0
 41
0.234375
 42
0.234375
 43
0.234375
 50
90.0
  0
CIRCLE
  5
107E3A
  8
BT-2P-BODY
 10
5.8307419147577209
 20
-6.1138393152568051
 30
0.0
 40
0.09375
  0
CIRCLE
  5
107E3B
  8
BT-2P-BODY
 10
4.2057419147577191
 20
-6.1138393152568051
 30
0.0
 40
0.1005
  0
INSERT
  5
107E3C
  8
C
  2
CEN-MRK
 10
4.2057419147577191
 20
-6.1138393152568051
 30
0.0
 41
0.3125
 42
0.3125
 43
0.3125
 50
90.0
  0
CIRCLE
  5
107E3D
  8
HID
 10
4.2057419147577191
 20
-6.1138393152568051
 30
0.0
 40
0.125
  0
LINE
  5
107E3E
  8
BT-2P-BODY
 10
4.0182419147577209
 20
-4.7104647803545427
 30
0.0
 11
6.0182419147577138
 21
-4.7104647803545427
 31
0.0
  0
CIRCLE
  5
107E40
  8
CI
 10
5.7057419147577209
 20
-4.1614647803545441
 30
0.0
 40
0.1685
  0
LINE
  5
107E41
  8
CENTER
 10
5.6157419147577254
 20
-4.1614647803545441
 30
0.0
 11
5.7957419147577252
 21
-4.1614647803545441
 31
0.0
  0
CIRCLE
  5
107E42
  8
CI
 10
5.7057419147577209
 20
-4.1614647803545441
 30
0.0
 40
0.046875
  0
LINE
  5
107E43
  8
CENTER
 10
5.7057419147577209
 20
-4.251464780354544
 30
0.0
 11
5.7057419147577209
 21
-4.0714647803545443
 31
0.0
  0
INSERT
  5
107E46
  8
B-2P-VERT-JAW
  2
2P_OPEN
 10
-12.248805140636801
 20
0.2285248461972937
 30
0.0
  0
INSERT
  5
107E47
  8
B-2P-VERT-JAW
  2
2P_2CLOSED
 10
-7.9768078609350788
 20
0.2285248461972937
 30
0.0
  0
LINE
  5
107E48
  8
BT-2P-BODY
 10
2.7879887715964928
 20
-2.2184647803545441
 30
0.0
 11
-0.4620112284035063
 21
-2.2184647803545441
 31
0.0
  0
LINE
  5
107E49
  8
B-2P-C
 10
0.5379887715964955
 20
-1.976464780354561
 30
0.0
 11
1.7879887715964951
 21
-1.976464780354561
 31
0.0
  0
ARC
  5
107E4A
  8
B2P-L-LINK
 10
0.7252986251661948
 20
-2.2260599702313768
 30
0.0
 40
0.0935
 50
4.6593833343544109
 51
175.34061666564551
  0
ARC
  5
107E4B
  8
B2P-L-LINK
 10
0.5609777266193589
 20
-1.5418361382138359
 30
0.0
 40
0.5
 50
219.3585698424221
 51
288.19773416307839
  0
LINE
  5
107E4E
  8
B-2P-IL
 10
-0.685769861658903
 20
-1.9994999999999969
 30
0.0
 11
-0.4620112284035045
 21
-2.4031712600470021
 31
0.0
  0
LINE
  5
107E4F
  8
BT-2P-BODY
 10
-0.4620112284035063
 20
-3.0934647803545481
 30
0.0
 11
-0.4620112284035063
 21
-2.2184647803545441
 31
0.0
  0
CIRCLE
  5
107E51
  8
HID
 10
0.2879887715964955
 20
-3.2184647803545392
 30
0.0
 40
0.125
  0
CIRCLE
  5
107E52
  8
BT-2P-BODY
 10
0.2879887715964955
 20
-3.2184647803545392
 30
0.0
 40
0.1005
  0
INSERT
  5
107E53
  8
C
  2
CEN-MRK
 10
0.2879887715964955
 20
-3.2184647803545392
 30
0.0
 41
0.3125
 42
0.3125
 43
0.3125
  0
CIRCLE
  5
107E55
  8
BT-2P-BODY
 10
0.2879887715964955
 20
-3.6247147803545321
 30
0.0
 40
0.09375
  0
INSERT
  5
107E56
  8
C
  2
CEN-MRK
 10
0.2879887715964955
 20
-3.6247147803545321
 30
0.0
 41
0.234375
 42
0.234375
 43
0.234375
  0
CIRCLE
  5
107E57
  8
BT-2P-BODY
 10
-0.2120112284035045
 20
-2.4684647803545481
 30
0.0
 40
0.0935
  0
LINE
  5
107E58
  8
BT-2P-BODY
 10
-0.4620112284035063
 20
-3.0934647803545481
 30
0.0
 11
0.0379887715964937
 21
-3.0934647803545481
 31
0.0
  0
CIRCLE
  5
107E59
  8
BT-2P-BODY
 10
0.2879887715964955
 20
-2.4684647803545441
 30
0.0
 40
0.0935
  0
CIRCLE
  5
107E5A
  8
BT-2P-BODY
 10
0.2879887715964955
 20
-2.4684647803545441
 30
0.0
 40
0.0935
  0
CIRCLE
  5
107E5B
  8
BT-2P-BODY
 10
0.2879887715964955
 20
-2.4684647803545441
 30
0.0
 40
0.0935
  0
LINE
  5
107E5C
  8
B2P-L-LINK
 10
-0.1857698616588976
 20
-1.9994999999999969
 30
0.0
 11
-0.0643957019590049
 21
-2.2184647803545441
 31
0.0
  0
LINE
  5
107E5D
  8
B-2P-IL
 10
-0.2570120862064069
 20
-1.9994999999999969
 30
0.0
 11
-0.1356379265065142
 21
-2.2184647803545441
 31
0.0
  0
LINE
  5
107E5E
  8
B-2P-C
 10
0.5379887715964955
 20
-2.041307366561333
 30
0.0
 11
0.5379887715964955
 21
-1.976464780354561
 31
0.0
  0
INSERT
  5
107E64
  8
B-2P-VERT-JAW
  2
BT-2P-2-JAW-END
 10
-10.278942488188999
 20
-12.142014665331899
 30
0.0
  0
LINE
  5
107E65
  8
B-2P-IL
 10
3.0117474048518971
 20
-1.9994999999999969
 30
0.0
 11
2.7879887715964928
 21
-2.4031712600470092
 31
0.0
  0
LINE
  5
107E66
  8
BT-2P-BODY
 10
2.7879887715964928
 20
-2.2184647803545441
 30
0.0
 11
2.7879887715964928
 21
-3.0934647803545481
 31
0.0
  0
CIRCLE
  5
107E67
  8
BT-2P-BODY
 10
2.5379887715964951
 20
-2.4684647803545481
 30
0.0
 40
0.0935
  0
LINE
  5
107E68
  8
BT-2P-BODY
 10
2.2879887715964928
 20
-3.0934647803545481
 30
0.0
 11
2.7879887715964928
 21
-3.0934647803545481
 31
0.0
  0
CIRCLE
  5
107E69
  8
HID
 10
2.0379887715964959
 20
-3.2184647803545392
 30
0.0
 40
0.125
  0
CIRCLE
  5
107E6A
  8
BT-2P-BODY
 10
2.0379887715964959
 20
-3.2184647803545392
 30
0.0
 40
0.1005
  0
INSERT
  5
107E6B
  8
C
  2
CEN-MRK
 10
2.0379887715964959
 20
-3.2184647803545392
 30
0.0
 41
0.3125
 42
0.3125
 43
0.3125
  0
CIRCLE
  5
107E6C
  8
BT-2P-BODY
 10
2.0379887715964959
 20
-3.6247147803545321
 30
0.0
 40
0.09375
  0
INSERT
  5
107E6D
  8
C
  2
CEN-MRK
 10
2.0379887715964959
 20
-3.6247147803545321
 30
0.0
 41
0.234375
 42
0.234375
 43
0.234375
  0
CIRCLE
  5
107E6E
  8
BT-2P-BODY
 10
2.0379887715964951
 20
-2.468464780354545
 30
0.0
 40
0.0935
  0
LINE
  5
107E6F
  8
B-2P-IL
 10
2.5829896293994041
 20
-1.9994999999999969
 30
0.0
 11
2.4616154696995109
 21
-2.2184647803545441
 31
0.0
  0
ARC
  5
107E70
  8
B2P-L-LINK
 10
1.6006789180268051
 20
-2.226059970231371
 30
0.0
 40
0.0935
 50
4.659383334351145
 51
175.34061666564881
  0
ARC
  5
107E71
  8
B2P-L-LINK
 10
1.764999816573642
 20
-1.541836138213833
 30
0.0
 40
0.5
 50
251.80226583692141
 51
320.64143015757548
  0
POLYLINE
  5
107E72
  8
CI
 66
     1
 10
0.0
 20
0.0
 30
0.0
  0
VERTEX
  5
10880C
  8
CI
 10
1.436488771596494
 20
-1.9454647803545619
 30
0.0
 42
0.1623613293970984
  0
VERTEX
  5
10880D
  8
CI
 10
1.2942687715964949
 20
-1.810464780354561
 30
0.0
  0
VERTEX
  5
10880E
  8
CI
 10
1.031708771596495
 20
-1.810464780354561
 30
0.0
 42
0.1623613293970984
  0
VERTEX
  5
10880F
  8
CI
 10
0.8894887715964969
 20
-1.9454647803545619
 30
0.0
  0
VERTEX
  5
108810
  8
CI
 10
0.8894887715964969
 20
-1.976464780354561
 30
0.0
  0
VERTEX
  5
108811
  8
CI
 10
1.436488771596494
 20
-1.976464780354561
 30
0.0
  0
VERTEX
  5
108812
  8
CI
 10
1.436488771596494
 20
-1.9454647803545619
 30
0.0
  0
VERTEX
  5
108813
  8
CI
 10
0.8894887715964969
 20
-1.9454647803545619
 30
0.0
  0
SEQEND
  5
108814
  8
CI
  0
LINE
  5
107E73
  8
B2P-L-LINK
 10
0.8445186330204297
 20
-2.0533574739343141
 30
0.0
 11
0.9360391074301492
 21
-2.2184647803545441
 31
0.0
  0
LINE
  5
107E74
  8
B2P-L-LINK
 10
0.7170721335780188
 20
-2.0168127782880889
 30
0.0
 11
0.8445186330204297
 21
-2.0533574739343141
 31
0.0
  0
LINE
  5
107E75
  8
B2P-L-LINK
 10
1.4814589101725699
 20
-2.0533574739343101
 30
0.0
 11
1.3899384357628479
 21
-2.2184647803545441
 31
0.0
  0
LINE
  5
107E76
  8
B2P-L-LINK
 10
1.6089054096149811
 20
-2.0168127782880858
 30
0.0
 11
1.4814589101725699
 21
-2.0533574739343101
 31
0.0
  0
LINE
  5
107E77
  8
B-2P-C
 10
1.7879887715964951
 20
-1.976464780354561
 30
0.0
 11
1.7879887715964951
 21
-2.0413073665613299
 31
0.0
  0
LINE
  5
107E78
  8
B2P-L-LINK
 10
2.5117474048518962
 20
-1.9994999999999969
 30
0.0
 11
2.390373245152003
 21
-2.2184647803545441
 31
0.0
  0
LINE
  5
107E79
  8
LINKS
 10
4.6532419147577233
 20
-2.726309877966357
 30
0.0
 11
4.6532419147577233
 21
-1.6030582349934079
 31
0.0
  0
LINE
  5
107E7A
  8
LINKS
 10
5.3832419147577228
 20
-2.726309877966357
 30
0.0
 11
5.3832419147577273
 21
-1.6030582349934079
 31
0.0
  0
LINE
  5
107E7B
  8
BT-2P-BODY
 10
4.6462419147577281
 20
-2.2184647803545441
 30
0.0
 11
4.646241914757721
 21
-2.8434647803545401
 31
0.0
  0
LINE
  5
107E7C
  8
BT-2P-BODY
 10
5.3902419147577207
 20
-2.2184647803545459
 30
0.0
 11
5.3902419147577207
 21
-2.8434647803545419
 31
0.0
  0
LINE
  5
107E7D
  8
BT-2P-BODY
 10
4.0182419147577209
 20
-3.0934647803545721
 30
0.0
 11
6.0182419147577209
 21
-3.0934647803545632
 31
0.0
  0
LINE
  5
107E7E
  8
LINKS
 10
4.6532419147577233
 20
-2.7263098779663539
 30
0.0
 11
5.3832419147577228
 21
-2.7263098779663539
 31
0.0
  0
LINE
  5
107E7F
  8
BT-2P-BODY
 10
5.3902419147577207
 20
-2.8434647803545419
 30
0.0
 11
4.646241914757721
 21
-2.8434647803545401
 31
0.0
  0
CIRCLE
  5
107E80
  8
HID
 10
5.705741914757728
 20
-3.3924647803545449
 30
0.0
 40
0.2150844733253407
  0
CIRCLE
  5
107E81
  8
CI
 10
5.705741914757728
 20
-3.3924647803545449
 30
0.0
 40
0.1685
  0
LINE
  5
107E82
  8
CENTER
 10
5.6157419147577254
 20
-3.3924647803545449
 30
0.0
 11
5.7957419147577252
 21
-3.3924647803545449
 31
0.0
  0
CIRCLE
  5
107E83
  8
CI
 10
5.705741914757728
 20
-3.3924647803545449
 30
0.0
 40
0.046875
  0
LINE
  5
107E84
  8
CENTER
 10
5.7057419147577209
 20
-3.4824647803545452
 30
0.0
 11
5.7057419147577209
 21
-3.302464780354545
 31
0.0
  0
LINE
  5
107E85
  8
BT-2P-BODY
 10
6.0182419147577209
 20
-2.2184647803545459
 30
0.0
 11
5.3902419147577207
 21
-2.2184647803545459
 31
0.0
  0
LINE
  5
107E86
  8
BT-2P-BODY
 10
4.6462419147577281
 20
-2.2184647803545441
 30
0.0
 11
4.0182419147577209
 21
-2.2184647803545441
 31
0.0
  0
LINE
  5
107E87
  8
LINKS
 10
4.6532419147577233
 20
-1.736970694851578
 30
0.0
 11
5.3832419147577273
 21
-1.736970694851578
 31
0.0
  0
LINE
  5
107E88
  8
LINKS
 10
4.6532419147577233
 20
-1.6030582349934079
 30
0.0
 11
5.3832419147577273
 21
-1.6030582349934079
 31
0.0
  0
INSERT
  5
107E89
  8
C
  2
CEN-MRK
 10
5.0182780116779186
 20
-1.0
 30
0.0
 41
0.3125
 42
0.3125
 43
0.3125
  0
INSERT
  5
107E8E
  8
C
  2
CEN-MRK
 10
5.0182780116779186
 20
-0.25
 30
0.0
 41
0.3125
 42
0.3125
 43
0.3125
  0
ENDSEC
  0
EOF
