  0
SECTION
  2
HEADER
  9
$ACADVER
  1
AC1009
  9
$INSBASE
 10
0.0
 20
0.0
 30
0.0
  9
$EXTMIN
 10
-0.9849472543673769
 20
-7.0943573581733359
 30
0.0
  9
$EXTMAX
 10
5.3382639053369303
 20
0.2197986042677306
 30
0.0
  9
$LIMMIN
 10
0.0
 20
0.0
  9
$LIMMAX
 10
12.0
 20
9.0
  9
$ORTHOMODE
 70
     1
  9
$REGENMODE
 70
     1
  9
$FILLMODE
 70
     1
  9
$QTEXTMODE
 70
     0
  9
$MIRRTEXT
 70
     1
  9
$DRAGMODE
 70
     2
  9
$LTSCALE
 40
0.5
  9
$OSMODE
 70
     5
  9
$ATTMODE
 70
     1
  9
$TEXTSIZE
 40
0.156
  9
$TRACEWID
 40
0.05
  9
$TEXTSTYLE
  7
ROMANS
  9
$CLAYER
  8
BT-2S-BODY
  9
$CELTYPE
  6
BYLAYER
  9
$CECOLOR
 62
   256
  9
$DIMSCALE
 40
0.75
  9
$DIMASZ
 40
0.18
  9
$DIMEXO
 40
0.0625
  9
$DIMDLI
 40
0.38
  9
$DIMRND
 40
0.0
  9
$DIMDLE
 40
0.0
  9
$DIMEXE
 40
0.18
  9
$DIMTP
 40
0.0
  9
$DIMTM
 40
0.0
  9
$DIMTXT
 40
0.156
  9
$DIMCEN
 40
0.09
  9
$DIMTSZ
 40
0.0
  9
$DIMTOL
 70
     0
  9
$DIMLIM
 70
     0
  9
$DIMTIH
 70
     1
  9
$DIMTOH
 70
     1
  9
$DIMSE1
 70
     0
  9
$DIMSE2
 70
     0
  9
$DIMTAD
 70
     0
  9
$DIMZIN
 70
     4
  9
$DIMBLK
  1

  9
$DIMASO
 70
     1
  9
$DIMSHO
 70
     1
  9
$DIMPOST
  1

  9
$DIMAPOST
  1

  9
$DIMALT
 70
     0
  9
$DIMALTD
 70
     2
  9
$DIMALTF
 40
25.399999999999999
  9
$DIMLFAC
 40
1.0
  9
$DIMTOFL
 70
     0
  9
$DIMTVP
 40
0.0
  9
$DIMTIX
 70
     0
  9
$DIMSOXD
 70
     0
  9
$DIMSAH
 70
     0
  9
$DIMBLK1
  1

  9
$DIMBLK2
  1

  9
$DIMSTYLE
  2
STANDARD
  9
$DIMCLRD
 70
   256
  9
$DIMCLRE
 70
   256
  9
$DIMCLRT
 70
   256
  9
$DIMTFAC
 40
1.0
  9
$DIMGAP
 40
0.09
  9
$LUNITS
 70
     2
  9
$LUPREC
 70
     4
  9
$SKETCHINC
 40
0.1
  9
$FILLETRAD
 40
0.0
  9
$AUNITS
 70
     0
  9
$AUPREC
 70
     2
  9
$MENU
  1
acad
  9
$ELEVATION
 40
0.0
  9
$PELEVATION
 40
0.0
  9
$THICKNESS
 40
0.0
  9
$LIMCHECK
 70
     0
  9
$BLIPMODE
 70
     0
  9
$CHAMFERA
 40
0.0
  9
$CHAMFERB
 40
0.0
  9
$SKPOLY
 70
     0
  9
$TDCREATE
 40
2452957.6659713071
  9
$TDUPDATE
 40
2453193.5687968279
  9
$TDINDWG
 40
0.0808751157
  9
$TDUSRTIMER
 40
0.0808745833
  9
$USRTIMER
 70
     1
  9
$ANGBASE
 50
0.0
  9
$ANGDIR
 70
     0
  9
$PDMODE
 70
     0
  9
$PDSIZE
 40
0.0
  9
$PLINEWID
 40
0.0
  9
$COORDS
 70
     0
  9
$SPLFRAME
 70
     0
  9
$SPLINETYPE
 70
     6
  9
$SPLINESEGS
 70
     8
  9
$ATTDIA
 70
     0
  9
$ATTREQ
 70
     1
  9
$HANDLING
 70
 12289
  9
$HANDSEED
  5
10851A
  9
$SURFTAB1
 70
    15
  9
$SURFTAB2
 70
    15
  9
$SURFTYPE
 70
     6
  9
$SURFU
 70
     6
  9
$SURFV
 70
     6
  9
$UCSNAME
  2
TOP
  9
$UCSORG
 10
0.0
 20
0.0
 30
0.0
  9
$UCSXDIR
 10
1.0
 20
0.0
 30
0.0
  9
$UCSYDIR
 10
0.0
 20
1.0
 30
0.0
  9
$PUCSNAME
  2

  9
$PUCSORG
 10
0.0
 20
0.0
 30
0.0
  9
$PUCSXDIR
 10
1.0
 20
0.0
 30
0.0
  9
$PUCSYDIR
 10
0.0
 20
1.0
 30
0.0
  9
$USERI1
 70
     0
  9
$USERI2
 70
     0
  9
$USERI3
 70
     0
  9
$USERI4
 70
     0
  9
$USERI5
 70
     0
  9
$USERR1
 40
0.0
  9
$USERR2
 40
0.0
  9
$USERR3
 40
0.0
  9
$USERR4
 40
0.0
  9
$USERR5
 40
0.0
  9
$WORLDVIEW
 70
     1
  9
$SHADEDGE
 70
     3
  9
$SHADEDIF
 70
    70
  9
$TILEMODE
 70
     1
  9
$MAXACTVP
 70
    15
  9
$PLIMCHECK
 70
     0
  9
$PEXTMIN
 10
1.0000000000000000E+020
 20
1.0000000000000000E+020
 30
1.0000000000000000E+020
  9
$PEXTMAX
 10
-1.0000000000000000E+020
 20
-1.0000000000000000E+020
 30
-1.0000000000000000E+020
  9
$PLIMMIN
 10
0.0
 20
0.0
  9
$PLIMMAX
 10
12.0
 20
9.0
  9
$UNITMODE
 70
     0
  9
$VISRETAIN
 70
     0
  9
$PLINEGEN
 70
     0
  9
$PSLTSCALE
 70
     1
  0
ENDSEC
  0
SECTION
  2
TABLES
  0
TABLE
  2
VPORT
 70
     3
  0
VPORT
  2
*ACTIVE
 70
     0
 10
0.0
 20
0.0
 11
1.0
 21
1.0
 12
0.0399258355487726
 22
-1.190709357284204
 13
0.0
 23
0.0
 14
1.0
 24
1.0
 15
0.0
 25
0.0
 16
0.0
 26
0.0
 36
1.0
 17
2.1367081379429198
 27
-2.2466461518772092
 37
1.552034160738883
 40
7.3857943595093172
 41
1.7560975609756091
 42
50.0
 43
0.0
 44
0.0
 50
0.0
 51
0.0
 71
     0
 72
   100
 73
     1
 74
     0
 75
     0
 76
     0
 77
     0
 78
     0
  0
ENDTAB
  0
TABLE
  2
LTYPE
 70
    21
  0
LTYPE
  2
CONTINUOUS
 70
     0
  3
Solid line
 72
    65
 73
     0
 40
0.0
  0
LTYPE
  2
HIDDEN
 70
     0
  3
__ __ __ __ __ __ __ __ __ __ __ __ __ __ __ __
 72
    65
 73
     2
 40
0.375
 49
0.25
 49
-0.125
  0
LTYPE
  2
HIDDEN2
 70
     0
  3
_ _ _ _ _ _ _ _ _ _ _ _ _ _ _ _ _ _ _ _ _ _ _ _
 72
    65
 73
     2
 40
0.1875
 49
0.125
 49
-0.0625
  0
LTYPE
  2
CENTER
 70
     0
  3
____ _ ____ _ ____ _ ____ _ ____ _ ____ _ ____ 
 72
    65
 73
     4
 40
2.0
 49
1.25
 49
-0.25
 49
0.25
 49
-0.25
  0
LTYPE
  2
CENTER2
 70
     0
  3
___ _ ___ _ ___ _ ___ _ ___ _ ___ _ ___ _ ___ _
 72
    65
 73
     4
 40
1.125
 49
0.75
 49
-0.125
 49
0.125
 49
-0.125
  0
LTYPE
  2
CENTERX2
 70
     0
  3
________  __  ________  __  ________  __  _____
 72
    65
 73
     4
 40
4.0
 49
2.5
 49
-0.5
 49
0.5
 49
-0.5
  0
LTYPE
  2
DASHDOT
 70
     0
  3
__ . __ . __ . __ . __ . __ . __ . __ . __ . __
 72
    65
 73
     4
 40
1.0
 49
0.5
 49
-0.25
 49
0.0
 49
-0.25
  0
LTYPE
  2
DASHDOT2
 70
     0
  3
_._._._._._._._._._._._._._._._._._._._._._._._
 72
    65
 73
     4
 40
0.5
 49
0.25
 49
-0.125
 49
0.0
 49
-0.125
  0
LTYPE
  2
DASHDOTX2
 70
     0
  3
____  .  ____  .  ____  .  ____  .  ____  .  __
 72
    65
 73
     4
 40
2.0
 49
1.0
 49
-0.5
 49
0.0
 49
-0.5
  0
LTYPE
  2
DASHED
 70
     0
  3
__ __ __ __ __ __ __ __ __ __ __ __ __ __ __ __
 72
    65
 73
     2
 40
0.75
 49
0.5
 49
-0.25
  0
LTYPE
  2
DASHED2
 70
     0
  3
_ _ _ _ _ _ _ _ _ _ _ _ _ _ _ _ _ _ _ _ _ _ _ _
 72
    65
 73
     2
 40
0.375
 49
0.25
 49
-0.125
  0
LTYPE
  2
DASHEDX2
 70
     0
  3
____  ____  ____  ____  ____  ____  ____  ____ 
 72
    65
 73
     2
 40
1.5
 49
1.0
 49
-0.5
  0
LTYPE
  2
DOT
 70
     0
  3
. . . . . . . . . . . . . . . . . . . . . . . .
 72
    65
 73
     2
 40
0.25
 49
0.0
 49
-0.25
  0
LTYPE
  2
DOT2
 70
     0
  3
...............................................
 72
    65
 73
     2
 40
0.125
 49
0.0
 49
-0.125
  0
LTYPE
  2
DOTX2
 70
     0
  3
.  .  .  .  .  .  .  .  .  .  .  .  .  .  .  . 
 72
    65
 73
     2
 40
0.5
 49
0.0
 49
-0.5
  0
LTYPE
  2
HIDDENX2
 70
     0
  3
____ ____ ____ ____ ____ ____ ____ ____ ____ __
 72
    65
 73
     2
 40
0.75
 49
0.5
 49
-0.25
  0
LTYPE
  2
PHANTOM
 70
     0
  3
______  __  __  ______  __  __  ______  __  __ 
 72
    65
 73
     6
 40
2.5
 49
1.25
 49
-0.25
 49
0.25
 49
-0.25
 49
0.25
 49
-0.25
  0
LTYPE
  2
PHANTOM2
 70
     0
  3
___ _ _ ___ _ _ ___ _ _ ___ _ _ ___ _ _ ___ _ _
 72
    65
 73
     6
 40
1.25
 49
0.625
 49
-0.125
 49
0.125
 49
-0.125
 49
0.125
 49
-0.125
  0
LTYPE
  2
PHANTOMX2
 70
     0
  3
____________    ____    ____    ____________   
 72
    65
 73
     6
 40
5.0
 49
2.5
 49
-0.5
 49
0.5
 49
-0.5
 49
0.5
 49
-0.5
  0
LTYPE
  2
ASULTYPE
 70
     0
  3
Solid line
 72
    65
 73
     2
 40
3.0
 49
2.5
 49
0.5
  0
LTYPE
  2
ASVLTYPE
 70
     0
  3
__ __ __ __ __ __ __ __ __ __ __ __ __ __ __ __ __ __ __ __ __
 72
    65
 73
     2
 40
0.75
 49
0.5
 49
-0.25
  0
ENDTAB
  0
TABLE
  2
LAYER
 70
    12
  0
LAYER
  2
0
 70
     0
 62
     7
  6
CONTINUOUS
  0
LAYER
  2
PART
 70
     0
 62
     3
  6
CONTINUOUS
  0
LAYER
  2
C
 70
     0
 62
     2
  6
CENTER
  0
LAYER
  2
CC
 70
     0
 62
     2
  6
CENTER2
  0
LAYER
  2
TEXT
 70
     0
 62
     7
  6
CONTINUOUS
  0
LAYER
  2
CI
 70
     0
 62
     8
  6
CONTINUOUS
  0
LAYER
  2
HID
 70
     0
 62
     4
  6
HIDDEN
  0
LAYER
  2
BT-2S-BODY
 70
     0
 62
   253
  6
CONTINUOUS
  0
LAYER
  2
B-2P-C
 70
     0
 62
    30
  6
CONTINUOUS
  0
LAYER
  2
BT-2P-R
 70
     0
 62
    40
  6
CONTINUOUS
  0
LAYER
  2
BT-2S-2-JAW
 70
     0
 62
   254
  6
CONTINUOUS
  0
LAYER
  2
B-2W-JAW
 70
     0
 62
   254
  6
CONTINUOUS
  0
ENDTAB
  0
TABLE
  2
STYLE
 70
    11
  0
STYLE
  2
STANDARD
 70
     0
 40
0.0
 41
0.8
 50
0.0
 71
     0
 42
0.2067340150288407
  3
SIMPLEX.SHX
  4

  0
STYLE
  2
ASHADE
 70
     0
 40
0.2
 41
1.0
 50
0.0
 71
     0
 42
0.2
  3
simplex
  4

  0
STYLE
  2
ROMANS
 70
     0
 40
0.0
 41
1.0
 50
0.0
 71
     0
 42
0.156
  3
romans.shx
  4

  0
STYLE
  2
ITALICC
 70
     0
 40
0.0
 41
1.0
 50
0.0
 71
     0
 42
0.156
  3
italicc
  4

  0
STYLE
  2
ROMAND
 70
     0
 40
0.0
 41
1.0
 50
0.0
 71
     0
 42
0.156
  3
romand
  4

  0
STYLE
  2
ITALICT
 70
     0
 40
0.0
 41
1.0
 50
0.0
 71
     0
 42
0.156
  3
italict
  4

  0
STYLE
  2
1
 70
     0
 40
0.0
 41
1.0
 50
0.0
 71
     0
 42
0.156
  3
ROMANS
  4

  0
STYLE
  2
2
 70
     0
 40
0.0
 41
1.0
 50
0.0
 71
     0
 42
0.156
  3
ROMAND
  4

  0
STYLE
  2
3
 70
     0
 40
0.0
 41
1.0
 50
0.0
 71
     0
 42
0.156
  3
ITALICC
  4

  0
STYLE
  2
4
 70
     0
 40
0.0
 41
1.0
 50
0.0
 71
     0
 42
0.156
  3
ITALICT
  4

  0
STYLE
  2
ADESK1
 70
     0
 40
0.0
 41
1.0
 50
0.0
 71
     0
 42
0.156
  3
romans.shx
  4

  0
ENDTAB
  0
TABLE
  2
VIEW
 70
     1
  0
VIEW
  2
LL
 70
     0
 40
9.8243439384828406
 10
1.4685819233133679
 20
0.0606082936169221
 41
11.60077376152519
 11
0.6123724356957946
 21
-0.6123724356957946
 31
0.5
 12
2.1367081379429198
 22
-2.2466461518772092
 32
1.552034160738883
 42
50.0
 43
-5.8312182741116763
 44
-5.8312182741116763
 50
0.0
 71
     0
  0
ENDTAB
  0
TABLE
  2
UCS
 70
     6
  0
UCS
  2
FRONT
 70
     0
 10
0.0
 20
0.0
 30
0.0
 11
1.0
 21
0.0
 31
0.0
 12
0.0
 22
0.0
 32
1.0
  0
UCS
  2
RSIDE
 70
     0
 10
0.0
 20
0.0
 30
0.0
 11
0.0
 21
1.0
 31
0.0
 12
0.0
 22
0.0
 32
1.0
  0
UCS
  2
LSIDE
 70
     0
 10
0.0
 20
0.0
 30
0.0
 11
0.0
 21
-1.0
 31
0.0
 12
0.0
 22
0.0
 32
1.0
  0
UCS
  2
BOTTOM
 70
     0
 10
0.0
 20
0.0
 30
0.0
 11
1.0
 21
0.0
 31
0.0
 12
0.0
 22
-1.0
 32
0.0
  0
UCS
  2
TOP
 70
     0
 10
0.0
 20
0.0
 30
0.0
 11
1.0
 21
0.0
 31
0.0
 12
0.0
 22
1.0
 32
0.0
  0
UCS
  2
BORDER
 70
     0
 10
0.0
 20
0.0
 30
0.0
 11
0.7071067811865476
 21
0.7071067811865476
 31
0.0
 12
-0.3535533905932738
 22
0.3535533905932738
 32
0.8660254037844385
  0
ENDTAB
  0
TABLE
  2
APPID
 70
     5
  0
APPID
  2
ACAD
 70
     0
  0
APPID
  2
AD_DRAW
 70
     0
  0
APPID
  2
DESIGNERASSEMBLIES
 70
     0
  0
APPID
  2
MCAD_NO_VIS
 70
     0
  0
APPID
  2
ASURF_PCURVE_APPNAME
 70
     0
  0
ENDTAB
  0
TABLE
  2
DIMSTYLE
 70
     5
  0
DIMSTYLE
  2
STANDARD
 70
     0
  3

  4

  5

  6

  7

 40
0.75
 41
0.18
 42
0.0625
 43
0.38
 44
0.18
 45
0.0
 46
0.0
 47
0.0
 48
0.0
140
0.156
141
0.09
142
0.0
143
25.399999999999999
144
1.0
145
0.0
146
1.0
147
0.09
 71
     0
 72
     0
 73
     1
 74
     1
 75
     0
 76
     0
 77
     0
 78
     4
170
     0
171
     2
172
     0
173
     0
174
     0
175
     0
176
   256
177
   256
178
   256
  0
DIMSTYLE
  2
STANDARD$0
 70
     0
  3

  4

  5

  6

  7

 40
0.75
 41
0.18
 42
0.063
 43
0.38
 44
0.18
 45
0.0
 46
0.0
 47
0.0
 48
0.0
140
0.156
141
0.09
142
0.0
143
25.399999999999999
144
1.0
145
0.0
146
1.0
147
0.09
 71
     0
 72
     0
 73
     1
 74
     1
 75
     0
 76
     0
 77
     0
 78
     4
170
     0
171
     2
172
     0
173
     0
174
     0
175
     0
176
   256
177
   256
178
   256
  0
DIMSTYLE
  2
STANDARD$2
 70
     0
  3

  4

  5

  6

  7

 40
0.75
 41
0.18
 42
0.063
 43
0.38
 44
0.18
 45
0.0
 46
0.0
 47
0.0
 48
0.0
140
0.156
141
0.09
142
0.0
143
25.399999999999999
144
1.0
145
0.0
146
1.0
147
0.09
 71
     0
 72
     0
 73
     1
 74
     1
 75
     0
 76
     0
 77
     0
 78
     4
170
     0
171
     2
172
     0
173
     0
174
     0
175
     0
176
   256
177
   256
178
   256
  0
DIMSTYLE
  2
STANDARD$6
 70
     0
  3

  4

  5

  6

  7

 40
0.75
 41
0.18
 42
0.063
 43
0.38
 44
0.18
 45
0.0
 46
0.0
 47
0.0
 48
0.0
140
0.156
141
0.09
142
0.0
143
25.399999999999999
144
1.0
145
0.0
146
1.0
147
0.09
 71
     0
 72
     0
 73
     1
 74
     1
 75
     0
 76
     0
 77
     0
 78
     4
170
     0
171
     2
172
     0
173
     0
174
     0
175
     0
176
     0
177
   256
178
   256
  0
DIMSTYLE
  2
STANDARD$7
 70
     0
  3

  4

  5

  6

  7

 40
0.75
 41
0.18
 42
0.063
 43
0.38
 44
0.18
 45
0.0
 46
0.0
 47
0.0
 48
0.0
140
0.156
141
0.09
142
0.0
143
25.399999999999999
144
1.0
145
0.0
146
1.0
147
0.09
 71
     0
 72
     0
 73
     1
 74
     1
 75
     0
 76
     0
 77
     0
 78
     4
170
     0
171
     2
172
     0
173
     0
174
     0
175
     0
176
   256
177
     0
178
   256
  0
ENDTAB
  0
ENDSEC
  0
SECTION
  2
BLOCKS
  0
BLOCK
  8
0
  2
$MODEL_SPACE
 70
     0
 10
0.0
 20
0.0
 30
0.0
  3
$MODEL_SPACE
  1

  0
ENDBLK
  5
1069DE
  8
0
  0
BLOCK
 67
     1
  8
0
  2
$PAPER_SPACE
 70
     0
 10
0.0
 20
0.0
 30
0.0
  3
$PAPER_SPACE
  1

  0
ENDBLK
  5
1069DC
 67
     1
  8
0
  0
BLOCK
  8
0
  2
*U0
 70
     1
 10
0.0
 20
0.0
 30
0.0
  3
*U0
  1

  0
ENDBLK
  5
106A2B
  8
0
  0
BLOCK
  8
0
  2
CENT-MRK
 70
     0
 10
0.0
 20
0.0
 30
0.0
  3
CENT-MRK
  1

  0
LINE
  5
107C0C
  8
C
 10
-0.748875544706806
 20
-0.9166015283516699
 30
0.0
 11
-0.748875544706806
 21
0.0833984716483301
 31
0.0
  0
LINE
  5
107C0D
  8
C
 10
-1.248875544706805
 20
-0.41660152835167
 30
0.0
 11
-0.2488755447068058
 21
-0.41660152835167
 31
0.0
  0
ENDBLK
  5
107C0F
  8
0
  0
BLOCK
  8
0
  2
2_CLOSED
 70
     0
 10
0.0
 20
0.0
 30
0.0
  3
2_CLOSED
  1

  0
LINE
  5
107CA0
  8
BT-2S-2-JAW
  6
HIDDEN
 10
20.554725239420101
 20
-16.942473175142421
 30
0.0
 11
20.750825660602331
 21
-14.70103510443599
 31
0.0
  0
LINE
  5
107CA1
  8
BT-2S-2-JAW
  6
HIDDEN
 10
20.97754124585693
 20
-16.412306574250952
 30
0.0
 11
21.124398672386729
 21
-14.73371850796636
 31
0.0
  0
LINE
  5
107CA2
  8
BT-2S-2-JAW
  6
HIDDEN
 10
22.71098165473488
 20
-16.942473175142421
 30
0.0
 11
22.51488123355265
 21
-14.701035104436
 31
0.0
  0
LINE
  5
107CA3
  8
BT-2S-2-JAW
  6
HIDDEN
 10
22.28816564829804
 20
-16.412306574250959
 30
0.0
 11
22.141308221768242
 21
-14.73371850796636
 31
0.0
  0
LINE
  5
107CA4
  8
BT-2S-2-JAW
  6
HIDDEN
 10
22.11544824678267
 20
-16.61814315801044
 30
0.0
 11
21.80662789037423
 21
-16.645161438262221
 31
0.0
  0
LINE
  5
107CA5
  8
BT-2S-2-JAW
  6
HIDDEN
 10
21.83931129390459
 20
-17.018734450046619
 30
0.0
 11
22.71098165473488
 21
-16.942473175142421
 31
0.0
  0
LINE
  5
107CA6
  8
BT-2S-2-JAW
  6
HIDDEN
 10
21.42639560025038
 20
-17.018734450046619
 30
0.0
 11
20.554725239420101
 21
-16.942473175142421
 31
0.0
  0
LINE
  5
107CA7
  8
BT-2S-2-JAW
  6
HIDDEN
 10
21.45907900378074
 20
-16.64516143826221
 30
0.0
 11
21.42639560025038
 21
-17.018734450046619
 31
0.0
  0
LINE
  5
107CA8
  8
BT-2S-2-JAW
  6
HIDDEN
 10
21.80662789037423
 20
-16.645161438262221
 30
0.0
 11
21.83931129390459
 21
-17.018734450046619
 31
0.0
  0
LINE
  5
107CA9
  8
BT-2S-2-JAW
  6
HIDDEN
 10
21.150258647372311
 20
-16.61814315801044
 30
0.0
 11
21.45907900378074
 21
-16.64516143826221
 31
0.0
  0
ARC
  5
107CAA
  8
BT-2S-2-JAW
  6
HIDDEN
 10
21.166818238494361
 20
-16.428866165373009
 30
0.0
 40
0.19
 50
175.0
 51
265.0
  0
ARC
  5
107CAB
  8
BT-2S-2-JAW
  6
HIDDEN
 10
22.098888655660609
 20
-16.428866165373009
 30
0.0
 40
0.19
 50
275.00000000000011
 51
4.9999999999999813
  0
LINE
  5
107CAC
  8
BT-2S-2-JAW
  6
HIDDEN
 10
21.091061600785761
 20
-15.11476297998645
 30
0.0
 11
20.717488589001348
 21
-15.08207957645608
 31
0.0
  0
LINE
  5
107CAD
  8
BT-2S-2-JAW
  6
HIDDEN
 10
21.048791065553139
 20
-15.597917408560949
 30
0.0
 11
20.675218053768742
 21
-15.565234005030581
 31
0.0
  0
LINE
  5
107CAE
  8
BT-2S-2-JAW
  6
HIDDEN
 10
21.025694793725009
 20
-15.861909003555271
 30
0.0
 11
20.652121781940611
 21
-15.829225600024889
 31
0.0
  0
LINE
  5
107CAF
  8
BT-2S-2-JAW
  6
HIDDEN
 10
20.750825660602331
 20
-14.70103510443599
 30
0.0
 11
21.124398672386729
 21
-14.73371850796636
 31
0.0
  0
LINE
  5
107CB0
  8
BT-2S-2-JAW
  6
HIDDEN
 10
21.114157872613891
 20
-14.850771384992139
 30
0.0
 11
20.740584860829479
 21
-14.818087981461771
 31
0.0
  0
LINE
  5
107CB1
  8
BT-2S-2-JAW
  6
HIDDEN
 10
22.216915828601831
 20
-15.59791740856096
 30
0.0
 11
22.590488840386239
 21
-15.565234005030581
 31
0.0
  0
LINE
  5
107CB2
  8
BT-2S-2-JAW
  6
HIDDEN
 10
22.240012100429968
 20
-15.861909003555271
 30
0.0
 11
22.61358511221437
 21
-15.8292256000249
 31
0.0
  0
LINE
  5
107CB3
  8
BT-2S-2-JAW
  6
HIDDEN
 10
22.17464529336922
 20
-15.114762979986461
 30
0.0
 11
22.548218305153618
 21
-15.08207957645609
 31
0.0
  0
LINE
  5
107CB4
  8
BT-2S-2-JAW
  6
HIDDEN
 10
22.51488123355265
 20
-14.701035104436
 30
0.0
 11
22.141308221768242
 21
-14.73371850796636
 31
0.0
  0
LINE
  5
107CB5
  8
BT-2S-2-JAW
  6
HIDDEN
 10
22.15154902154109
 20
-14.85077138499215
 30
0.0
 11
22.525122033325498
 21
-14.818087981461771
 31
0.0
  0
ENDBLK
  5
107CB7
  8
0
  0
BLOCK
  8
0
  2
2_OPEN
 70
     0
 10
0.0
 20
0.0
 30
0.0
  3
2_OPEN
  1

  0
LINE
  5
107CB9
  8
BT-2S-2-JAW
 10
26.049945558785069
 20
-17.021202005161161
 30
0.0
 11
27.000836647701639
 21
-14.9820094843287
 31
0.0
  0
LINE
  5
107CBA
  8
BT-2S-2-JAW
 10
25.94885945652981
 20
-16.350656257332691
 30
0.0
 11
26.660971227562889
 21
-14.82352763617593
 31
0.0
  0
LINE
  5
107CBB
  8
BT-2S-2-JAW
  6
HIDDEN
 10
26.294349885502839
 20
-15.609749641430231
 30
0.0
 11
26.634215305641579
 21
-15.768231489582989
 31
0.0
  0
LINE
  5
107CBC
  8
BT-2S-2-JAW
  6
HIDDEN
 10
26.18235604614155
 20
-15.84992120499494
 30
0.0
 11
26.5222214662803
 21
-16.00840305314771
 31
0.0
  0
LINE
  5
107CBD
  8
BT-2S-2-JAW
  6
HIDDEN
 10
26.611313581808371
 20
-14.930018801152739
 30
0.0
 11
26.951179001947111
 21
-15.0885006493055
 31
0.0
  0
LINE
  5
107CBE
  8
BT-2S-2-JAW
  6
HIDDEN
 10
26.499319742447081
 20
-15.170190364717451
 30
0.0
 11
26.839185162585821
 21
-15.32867221287022
 31
0.0
  0
LINE
  5
107CBF
  8
BT-2S-2-JAW
 10
27.000836647701639
 20
-14.9820094843287
 30
0.0
 11
26.660971227562889
 21
-14.82352763617593
 31
0.0
  0
ARC
  5
107CC0
  8
BT-2S-2-JAW
 10
25.776660976992851
 20
-16.27035878760196
 30
0.0
 40
0.19
 50
244.9999999999998
 51
335.00000000000011
  0
LINE
  5
107CC1
  8
BT-2S-2-JAW
 10
25.69636350726212
 20
-16.44255726713892
 30
0.0
 11
25.41540809328076
 21
-16.311545605999299
 31
0.0
  0
LINE
  5
107CC2
  8
BT-2S-2-JAW
 10
25.256926245127989
 20
-16.651411026138039
 30
0.0
 11
26.049945558785069
 21
-17.021202005161161
 31
0.0
  0
LINE
  5
107CC3
  8
BT-2S-2-JAW
 10
25.41540809328076
 20
-16.311545605999299
 30
0.0
 11
25.256926245127989
 21
-16.651411026138039
 31
0.0
  0
LINE
  5
107CC4
  8
BT-2S-2-JAW
 10
24.911581300456149
 20
-16.651411026138039
 30
0.0
 11
24.11856198679909
 21
-17.021202005161161
 31
0.0
  0
LINE
  5
107CC5
  8
BT-2S-2-JAW
 10
24.11856198679909
 20
-17.021202005161161
 30
0.0
 11
23.167670897882509
 21
-14.982009484328691
 31
0.0
  0
ARC
  5
107CC6
  8
BT-2S-2-JAW
 10
24.391846568591301
 20
-16.27035878760195
 30
0.0
 40
0.19
 50
204.99999999999989
 51
295.0
  0
LINE
  5
107CC7
  8
BT-2S-2-JAW
 10
24.472144038322028
 20
-16.44255726713892
 30
0.0
 11
24.753099452303388
 21
-16.311545605999299
 31
0.0
  0
LINE
  5
107CC8
  8
BT-2S-2-JAW
 10
24.753099452303388
 20
-16.311545605999299
 30
0.0
 11
24.911581300456149
 21
-16.651411026138039
 31
0.0
  0
LINE
  5
107CC9
  8
BT-2S-2-JAW
 10
24.219648089054338
 20
-16.350656257332691
 30
0.0
 11
23.507536318021248
 21
-14.82352763617593
 31
0.0
  0
LINE
  5
107CCA
  8
BT-2S-2-JAW
  6
HIDDEN
 10
23.557193963775791
 20
-14.930018801152739
 30
0.0
 11
23.217328543637048
 21
-15.0885006493055
 31
0.0
  0
LINE
  5
107CCB
  8
BT-2S-2-JAW
  6
HIDDEN
 10
23.874157660081309
 20
-15.609749641430231
 30
0.0
 11
23.53429223994257
 21
-15.768231489582989
 31
0.0
  0
LINE
  5
107CCC
  8
BT-2S-2-JAW
  6
HIDDEN
 10
23.986151499442599
 20
-15.84992120499494
 30
0.0
 11
23.646286079303859
 21
-16.008403053147699
 31
0.0
  0
LINE
  5
107CCD
  8
BT-2S-2-JAW
  6
HIDDEN
 10
23.669187803137071
 20
-15.170190364717451
 30
0.0
 11
23.329322382998331
 21
-15.32867221287021
 31
0.0
  0
LINE
  5
107CCE
  8
BT-2S-2-JAW
 10
23.167670897882509
 20
-14.982009484328691
 30
0.0
 11
23.507536318021248
 21
-14.82352763617593
 31
0.0
  0
ENDBLK
  5
107CD0
  8
0
  0
BLOCK
  8
0
  2
CEN-MRK
 70
     0
 10
0.0
 20
0.0
 30
0.0
  3
CEN-MRK
  1

  0
LINE
  5
10819D
  8
C
 10
0.0
 20
0.5
 30
0.0
 11
0.0
 21
-0.5000000000000001
 31
0.0
  0
LINE
  5
10819E
  8
C
 10
0.5000000000000002
 20
0.0
 30
0.0
 11
-0.5
 21
0.0
 31
0.0
  0
ENDBLK
  5
1081A0
  8
0
  0
BLOCK
  8
0
  2
*X5
 70
     1
 10
0.0
 20
0.0
 30
0.0
  3
*X5
  1

  0
LINE
  5
1084B9
  8
0
 62
     0
 10
4.2061481099136646
 20
-0.0404696384114765
 30
0.0
 11
4.2135456909200411
 21
-0.0330720574051
 31
0.0
  0
LINE
  5
1084BA
  8
0
 62
     0
 10
4.0808663243305512
 20
-0.1657514239945907
 30
0.0
 11
4.0882639053369267
 21
-0.1583538429882143
 31
0.0
  0
LINE
  5
1084BB
  8
0
 62
     0
 10
4.1955415081958671
 20
-0.0404696384114765
 30
0.0
 11
4.2125992695048327
 21
-0.02341187710251
 31
0.0
  0
LINE
  5
1084BC
  8
0
 62
     0
 10
4.0712061440279612
 20
-0.1648050025793823
 30
0.0
 11
4.0882639053369267
 21
-0.1477472412704159
 31
0.0
  0
LINE
  5
1084BD
  8
0
 62
     0
 10
4.1849349064780679
 20
-0.0404696384114765
 30
0.0
 11
4.21102255006583
 21
-0.0143819948237143
 31
0.0
  0
LINE
  5
1084BE
  8
0
 62
     0
 10
4.0621762617491637
 20
-0.1632282831403806
 30
0.0
 11
4.0882639053369267
 21
-0.1371406395526176
 31
0.0
  0
LINE
  5
1084BF
  8
0
 62
     0
 10
4.1743283047602704
 20
-0.0404696384114765
 30
0.0
 11
4.2089063800757778
 21
-0.0058915630959682
 31
0.0
  0
LINE
  5
1084C0
  8
0
 62
     0
 10
4.0536858300214194
 20
-0.1611121131503275
 30
0.0
 11
4.0882639053369259
 21
-0.1265340378348192
 31
0.0
  0
LINE
  5
1084C1
  8
0
 62
     0
 10
4.1637217030424711
 20
-0.0404696384114765
 30
0.0
 11
4.2063150003323404
 21
0.0021236588783919
 31
0.0
  0
LINE
  5
1084C2
  8
0
 62
     0
 10
4.0456706080470584
 20
-0.1585207334068901
 30
0.0
 11
4.0882639053369267
 21
-0.1159274361170208
 31
0.0
  0
LINE
  5
1084C3
  8
0
 62
     0
 10
4.1531151013246728
 20
-0.0404696384114765
 30
0.0
 11
4.2032952270826041
 21
0.0097104873464549
 31
0.0
  0
LINE
  5
1084C4
  8
0
 62
     0
 10
4.0380837795789946
 20
-0.1555009601571538
 30
0.0
 11
4.0882639053369267
 21
-0.1053208343992225
 31
0.0
  0
LINE
  5
1084C5
  8
0
 62
     0
 10
4.1425084996068753
 20
-0.0404696384114765
 30
0.0
 11
4.1998817999900071
 21
0.0169036619716563
 31
0.0
  0
LINE
  5
1084C6
  8
0
 62
     0
 10
4.030890604953794
 20
-0.1520875330645568
 30
0.0
 11
4.0882639053369259
 21
-0.094714232681425
 31
0.0
  0
LINE
  5
1084C7
  8
0
 62
     0
 10
4.131901897889076
 20
-0.0404696384114756
 30
0.0
 11
4.1961006695643048
 21
0.0237291332637524
 31
0.0
  0
LINE
  5
1084C8
  8
0
 62
     0
 10
4.024065133661697
 20
-0.1483064026388545
 30
0.0
 11
4.0882639053369259
 21
-0.0841076309636266
 31
0.0
  0
LINE
  5
1084C9
  8
0
 62
     0
 10
4.1212952961712777
 20
-0.0404696384114765
 30
0.0
 11
4.19197109579064
 21
0.0302061612078859
 31
0.0
  0
LINE
  5
1084CA
  8
0
 62
     0
 10
4.0175881057175644
 20
-0.1441768288651906
 30
0.0
 11
4.0882639053369259
 21
-0.0735010292458274
 31
0.0
  0
LINE
  5
1084CB
  8
0
 62
     0
 10
4.1106886944534811
 20
-0.0404696384114756
 30
0.0
 11
4.187507017318663
 21
0.0363486844537073
 31
0.0
  0
LINE
  5
1084CC
  8
0
 62
     0
 10
4.0114455824717421
 20
-0.1397127503932136
 30
0.0
 11
4.0882639053369259
 21
-0.0628944275280299
 31
0.0
  0
LINE
  5
1084CD
  8
0
 62
     0
 10
4.1000820927356809
 20
-0.0404696384114773
 30
0.0
 11
4.1827179458908352
 21
0.0421662147436761
 31
0.0
  0
LINE
  5
1084CE
  8
0
 62
     0
 10
4.0056280521817751
 20
-0.134923678965384
 30
0.0
 11
4.0882639053369267
 21
-0.0522878258102315
 31
0.0
  0
LINE
  5
1084CF
  8
0
 62
     0
 10
4.0894754910178852
 20
-0.0404696384114765
 30
0.0
 11
4.1776095314928572
 21
0.0476644020634955
 31
0.0
  0
LINE
  5
1084D0
  8
0
 62
     0
 10
4.0001298648619539
 20
-0.1298152645674069
 30
0.0
 11
4.0882639053369267
 21
-0.041681224092434
 31
0.0
  0
LINE
  5
1084D1
  8
0
 62
     0
 10
4.0882639053369267
 20
-0.0310746223746357
 30
0.0
 11
4.1721838810349636
 21
0.0528453533234012
 31
0.0
  0
LINE
  5
1084D2
  8
0
 62
     0
 10
3.9949489136020491
 20
-0.1243896141095133
 30
0.0
 11
4.0788688893000851
 21
-0.0404696384114773
 31
0.0
  0
LINE
  5
1084D3
  8
0
 62
     0
 10
4.0882639053369267
 20
-0.0204680206568373
 30
0.0
 11
4.1664396739823202
 21
0.0577077479885553
 31
0.0
  0
LINE
  5
1084D4
  8
0
 62
     0
 10
3.990086518936895
 20
-0.1186454070568699
 30
0.0
 11
4.0682622875822867
 21
-0.0404696384114773
 31
0.0
  0
LINE
  5
1084D5
  8
0
 62
     0
 10
4.0882639053369267
 20
-0.0098614189390389
 30
0.0
 11
4.1603720900849588
 21
0.0622467658089931
 31
0.0
  0
LINE
  5
1084D6
  8
0
 62
     0
 10
3.9855475011164572
 20
-0.1125778231595094
 30
0.0
 11
4.0576556858644892
 21
-0.0404696384114773
 31
0.0
  0
LINE
  5
1084D7
  8
0
 62
     0
 10
4.0882639053369259
 20
0.0007451827787586
 30
0.0
 11
4.1539725397762277
 21
0.0664538172180604
 31
0.0
  0
LINE
  5
1084D8
  8
0
 62
     0
 10
3.981340449707389
 20
-0.1061782728507774
 30
0.0
 11
4.0470490841466908
 21
-0.0404696384114765
 31
0.0
  0
LINE
  5
1084D9
  8
0
 62
     0
 10
4.0882639053369259
 20
0.0113517844965578
 30
0.0
 11
4.147228160944854
 21
0.070316040104486
 31
0.0
  0
LINE
  5
1084DA
  8
0
 62
     0
 10
3.9774782268209652
 20
-0.0994338940194046
 30
0.0
 11
4.0364424824288934
 21
-0.0404696384114765
 31
0.0
  0
LINE
  5
1084DB
  8
0
 62
     0
 10
4.0882639053369267
 20
0.0219583862143562
 30
0.0
 11
4.1401210097683316
 21
0.073815490645762
 31
0.0
  0
LINE
  5
1084DC
  8
0
 62
     0
 10
3.9739787762796892
 20
-0.0923267428428822
 30
0.0
 11
4.0258358807110941
 21
-0.0404696384114765
 31
0.0
  0
LINE
  5
1084DD
  8
0
 62
     0
 10
4.0882639053369259
 20
0.0325649879321537
 30
0.0
 11
4.1326268174400891
 21
0.0769279000353169
 31
0.0
  0
LINE
  5
1084DE
  8
0
 62
     0
 10
3.9708663668901329
 20
-0.0848325505146388
 30
0.0
 11
4.0152292789932948
 21
-0.0404696384114765
 31
0.0
  0
LINE
  5
1084DF
  8
0
 62
     0
 10
4.0882639053369259
 20
0.0431715896499521
 30
0.0
 11
4.1247130890823254
 21
0.0796207733953516
 31
0.0
  0
LINE
  5
1084E0
  8
0
 62
     0
 10
3.9681734935300992
 20
-0.0769188221568751
 30
0.0
 11
4.0046226772754983
 21
-0.0404696384114765
 31
0.0
  0
LINE
  5
1084E1
  8
0
 62
     0
 10
4.0882639053369259
 20
0.0537781913677504
 30
0.0
 11
4.1163361449187761
 21
0.0818504309495998
 31
0.0
  0
LINE
  5
1084E2
  8
0
 62
     0
 10
3.9659438359758501
 20
-0.0685418779933258
 30
0.0
 11
3.994016075557699
 21
-0.0404696384114765
 31
0.0
  0
LINE
  5
1084E3
  8
0
 62
     0
 10
4.0882639053369267
 20
0.0643847930855488
 30
0.0
 11
4.1074363547460013
 21
0.0835572424946225
 31
0.0
  0
LINE
  5
1084E4
  8
0
 62
     0
 10
3.9642370244308278
 20
-0.0596420878205502
 30
0.0
 11
3.983409473839902
 21
-0.0404696384114765
 31
0.0
  0
LINE
  5
1084E5
  8
0
 62
     0
 10
4.0882639053369267
 20
0.0749913948033472
 30
0.0
 11
4.0979300685740077
 21
0.0846575580404281
 31
0.0
  0
LINE
  5
1084E6
  8
0
 62
     0
 10
3.9631367088850231
 20
-0.0501358016485565
 30
0.0
 11
3.972802872122104
 21
-0.0404696384114765
 31
0.0
  0
ENDBLK
  5
1084E8
  8
0
  0
BLOCK
  8
0
  2
*X6
 70
     1
 10
0.0
 20
0.0
 30
0.0
  3
*X6
  1

  0
LINE
  5
1084EA
  8
0
 62
     0
 10
4.7061481099136646
 20
-0.7904696384114766
 30
0.0
 11
4.7135456909200411
 21
-0.7830720574051
 31
0.0
  0
LINE
  5
1084EB
  8
0
 62
     0
 10
4.5808663243305512
 20
-0.9157514239945908
 30
0.0
 11
4.5882639053369259
 21
-0.9083538429882151
 31
0.0
  0
LINE
  5
1084EC
  8
0
 62
     0
 10
4.6955415081958671
 20
-0.7904696384114766
 30
0.0
 11
4.7125992695048327
 21
-0.7734118771025101
 31
0.0
  0
LINE
  5
1084ED
  8
0
 62
     0
 10
4.5712061440279612
 20
-0.9148050025793824
 30
0.0
 11
4.5882639053369259
 21
-0.8977472412704168
 31
0.0
  0
LINE
  5
1084EE
  8
0
 62
     0
 10
4.6849349064780679
 20
-0.7904696384114766
 30
0.0
 11
4.71102255006583
 21
-0.7643819948237143
 31
0.0
  0
LINE
  5
1084EF
  8
0
 62
     0
 10
4.5621762617491637
 20
-0.9132282831403806
 30
0.0
 11
4.5882639053369259
 21
-0.8871406395526184
 31
0.0
  0
LINE
  5
1084F0
  8
0
 62
     0
 10
4.6743283047602704
 20
-0.7904696384114766
 30
0.0
 11
4.7089063800757778
 21
-0.7558915630959682
 31
0.0
  0
LINE
  5
1084F1
  8
0
 62
     0
 10
4.5536858300214194
 20
-0.9111121131503274
 30
0.0
 11
4.5882639053369259
 21
-0.87653403783482
 31
0.0
  0
LINE
  5
1084F2
  8
0
 62
     0
 10
4.6637217030424711
 20
-0.7904696384114766
 30
0.0
 11
4.7063150003323404
 21
-0.7478763411216081
 31
0.0
  0
LINE
  5
1084F3
  8
0
 62
     0
 10
4.5456706080470584
 20
-0.9085207334068901
 30
0.0
 11
4.5882639053369259
 21
-0.8659274361170217
 31
0.0
  0
LINE
  5
1084F4
  8
0
 62
     0
 10
4.6531151013246737
 20
-0.7904696384114756
 30
0.0
 11
4.7032952270826041
 21
-0.7402895126535452
 31
0.0
  0
LINE
  5
1084F5
  8
0
 62
     0
 10
4.5380837795789946
 20
-0.9055009601571536
 30
0.0
 11
4.5882639053369259
 21
-0.8553208343992234
 31
0.0
  0
LINE
  5
1084F6
  8
0
 62
     0
 10
4.6425084996068753
 20
-0.7904696384114766
 30
0.0
 11
4.6998817999900071
 21
-0.7330963380283438
 31
0.0
  0
LINE
  5
1084F7
  8
0
 62
     0
 10
4.530890604953794
 20
-0.9020875330645568
 30
0.0
 11
4.588263905336925
 21
-0.8447142326814249
 31
0.0
  0
LINE
  5
1084F8
  8
0
 62
     0
 10
4.631901897889076
 20
-0.7904696384114756
 30
0.0
 11
4.6961006695643048
 21
-0.7262708667362477
 31
0.0
  0
LINE
  5
1084F9
  8
0
 62
     0
 10
4.524065133661697
 20
-0.8983064026388545
 30
0.0
 11
4.5882639053369259
 21
-0.8341076309636266
 31
0.0
  0
LINE
  5
1084FA
  8
0
 62
     0
 10
4.6212952961712794
 20
-0.7904696384114756
 30
0.0
 11
4.69197109579064
 21
-0.7197938387921142
 31
0.0
  0
LINE
  5
1084FB
  8
0
 62
     0
 10
4.5175881057175644
 20
-0.8941768288651905
 30
0.0
 11
4.5882639053369259
 21
-0.8235010292458282
 31
0.0
  0
LINE
  5
1084FC
  8
0
 62
     0
 10
4.6106886944534811
 20
-0.7904696384114756
 30
0.0
 11
4.687507017318663
 21
-0.7136513155462927
 31
0.0
  0
LINE
  5
1084FD
  8
0
 62
     0
 10
4.5114455824717421
 20
-0.8897127503932136
 30
0.0
 11
4.5882639053369259
 21
-0.8128944275280298
 31
0.0
  0
LINE
  5
1084FE
  8
0
 62
     0
 10
4.6000820927356827
 20
-0.7904696384114756
 30
0.0
 11
4.6827179458908352
 21
-0.7078337852563239
 31
0.0
  0
LINE
  5
1084FF
  8
0
 62
     0
 10
4.5056280521817751
 20
-0.884923678965384
 30
0.0
 11
4.5882639053369259
 21
-0.8022878258102323
 31
0.0
  0
LINE
  5
108500
  8
0
 62
     0
 10
4.5894754910178852
 20
-0.7904696384114766
 30
0.0
 11
4.6776095314928572
 21
-0.7023355979365045
 31
0.0
  0
LINE
  5
108501
  8
0
 62
     0
 10
4.5001298648619539
 20
-0.8798152645674068
 30
0.0
 11
4.5882639053369259
 21
-0.7916812240924341
 31
0.0
  0
LINE
  5
108502
  8
0
 62
     0
 10
4.5882639053369267
 20
-0.7810746223746357
 30
0.0
 11
4.6721838810349636
 21
-0.6971546466765988
 31
0.0
  0
LINE
  5
108503
  8
0
 62
     0
 10
4.4949489136020491
 20
-0.8743896141095133
 30
0.0
 11
4.5788688893000868
 21
-0.7904696384114756
 31
0.0
  0
LINE
  5
108504
  8
0
 62
     0
 10
4.5882639053369259
 20
-0.7704680206568382
 30
0.0
 11
4.6664396739823202
 21
-0.6922922520114448
 31
0.0
  0
LINE
  5
108505
  8
0
 62
     0
 10
4.490086518936895
 20
-0.8686454070568698
 30
0.0
 11
4.5682622875822867
 21
-0.7904696384114774
 31
0.0
  0
LINE
  5
108506
  8
0
 62
     0
 10
4.5882639053369259
 20
-0.7598614189390398
 30
0.0
 11
4.6603720900849588
 21
-0.6877532341910069
 31
0.0
  0
LINE
  5
108507
  8
0
 62
     0
 10
4.4855475011164572
 20
-0.8625778231595093
 30
0.0
 11
4.5576556858644901
 21
-0.7904696384114756
 31
0.0
  0
LINE
  5
108508
  8
0
 62
     0
 10
4.5882639053369259
 20
-0.7492548172212415
 30
0.0
 11
4.6539725397762277
 21
-0.6835461827819396
 31
0.0
  0
LINE
  5
108509
  8
0
 62
     0
 10
4.481340449707389
 20
-0.8561782728507774
 30
0.0
 11
4.5470490841466908
 21
-0.7904696384114766
 31
0.0
  0
LINE
  5
10850A
  8
0
 62
     0
 10
4.5882639053369259
 20
-0.7386482155034431
 30
0.0
 11
4.647228160944854
 21
-0.679683959895514
 31
0.0
  0
LINE
  5
10850B
  8
0
 62
     0
 10
4.4774782268209652
 20
-0.8494338940194046
 30
0.0
 11
4.5364424824288934
 21
-0.7904696384114766
 31
0.0
  0
LINE
  5
10850C
  8
0
 62
     0
 10
4.5882639053369259
 20
-0.7280416137856447
 30
0.0
 11
4.6401210097683316
 21
-0.6761845093542381
 31
0.0
  0
LINE
  5
10850D
  8
0
 62
     0
 10
4.4739787762796892
 20
-0.8423267428428822
 30
0.0
 11
4.5258358807110941
 21
-0.7904696384114766
 31
0.0
  0
LINE
  5
10850E
  8
0
 62
     0
 10
4.5882639053369259
 20
-0.7174350120678464
 30
0.0
 11
4.6326268174400891
 21
-0.6730720999646831
 31
0.0
  0
LINE
  5
10850F
  8
0
 62
     0
 10
4.4708663668901334
 20
-0.8348325505146387
 30
0.0
 11
4.5152292789932966
 21
-0.7904696384114756
 31
0.0
  0
LINE
  5
108510
  8
0
 62
     0
 10
4.588263905336925
 20
-0.706828410350048
 30
0.0
 11
4.6247130890823254
 21
-0.6703792266046486
 31
0.0
  0
LINE
  5
108511
  8
0
 62
     0
 10
4.4681734935300987
 20
-0.826918822156875
 30
0.0
 11
4.5046226772754983
 21
-0.7904696384114766
 31
0.0
  0
LINE
  5
108512
  8
0
 62
     0
 10
4.5882639053369259
 20
-0.6962218086322496
 30
0.0
 11
4.6163361449187761
 21
-0.6681495690504004
 31
0.0
  0
LINE
  5
108513
  8
0
 62
     0
 10
4.4659438359758497
 20
-0.8185418779933257
 30
0.0
 11
4.494016075557699
 21
-0.7904696384114756
 31
0.0
  0
LINE
  5
108514
  8
0
 62
     0
 10
4.5882639053369267
 20
-0.6856152069144513
 30
0.0
 11
4.6074363547460013
 21
-0.6664427575053776
 31
0.0
  0
LINE
  5
108515
  8
0
 62
     0
 10
4.4642370244308278
 20
-0.8096420878205501
 30
0.0
 11
4.4834094738399024
 21
-0.7904696384114756
 31
0.0
  0
LINE
  5
108516
  8
0
 62
     0
 10
4.5882639053369267
 20
-0.675008605196653
 30
0.0
 11
4.5979300685740077
 21
-0.665342441959572
 31
0.0
  0
LINE
  5
108517
  8
0
 62
     0
 10
4.4631367088850231
 20
-0.8001358016485564
 30
0.0
 11
4.472802872122104
 21
-0.7904696384114756
 31
0.0
  0
ENDBLK
  5
108519
  8
0
  0
ENDSEC
  0
SECTION
  2
ENTITIES
  0
LINE
  5
107DB3
  8
BT-2S-BODY
 10
5.3382639053369259
 20
-7.0943573581733359
 30
0.0
 11
5.3382639053369303
 21
-4.8443573581733359
 31
0.0
  0
LINE
  5
107DB4
  8
BT-2S-BODY
 10
3.338263905336933
 20
-4.8443573581733359
 30
0.0
 11
3.3382639053369259
 21
-7.0943573581733359
 31
0.0
  0
LINE
  5
107DB5
  8
BT-2S-BODY
 10
3.3382639053369298
 20
-7.0943573581733359
 30
0.0
 11
5.3382639053369259
 21
-7.0943573581733359
 31
0.0
  0
INSERT
  5
107DBD
  8
BT-2S-2-JAW
  2
2_OPEN
 10
-24.15261815224989
 20
14.92083370870372
 30
0.0
  0
LINE
  5
107DBF
  8
BT-2S-BODY
 10
-0.1933643794578106
 20
-4.1012946623116804
 30
0.0
 11
-0.1933643794578088
 21
-1.6011946623116771
 31
0.0
  0
LINE
  5
107DC0
  8
BT-2S-BODY
 10
2.0566356205421892
 20
-4.101294662311683
 30
0.0
 11
2.0566356205421892
 21
-1.60119466231168
 31
0.0
  0
LINE
  5
107DC2
  8
C
  6
CENTER2
 10
4.3382639053369303
 20
-1.47619466231168
 30
0.0
 11
4.3382639053369303
 21
-4.2262946623116866
 31
0.0
  0
LINE
  5
107DC3
  8
BT-2S-BODY
 10
5.3382639053369303
 20
-1.6011946623116871
 30
0.0
 11
5.3382639053369303
 21
-4.101294662311691
 31
0.0
  0
LINE
  5
107DC4
  8
BT-2S-BODY
 10
3.3382639053369298
 20
-4.101294662311683
 30
0.0
 11
3.3382639053369298
 21
-1.6011946623116839
 31
0.0
  0
INSERT
  5
107DC6
  8
CC
  2
CENT-MRK
 10
3.7479035017282269
 20
-6.7207804888014451
 30
0.0
 41
0.296630859375
 42
0.296630859375
 43
0.296630859375
  0
INSERT
  5
107DC7
  8
CC
  2
CENT-MRK
 10
3.7479035017282309
 20
-4.9707804888014451
 30
0.0
 41
0.296630859375
 42
0.296630859375
 43
0.296630859375
  0
CIRCLE
  5
107DC8
  8
CI
 10
3.5257639053369259
 20
-6.8443573581733359
 30
0.0
 40
0.09375
  0
CIRCLE
  5
107DC9
  8
BT-2S-BODY
 10
4.3382639053369303
 20
-5.9693573581733359
 30
0.0
 40
0.8129999999999999
  0
LINE
  5
107DCA
  8
BT-2S-BODY
 10
3.3382639053369298
 20
-4.8443573581733359
 30
0.0
 11
5.3382639053369303
 21
-4.8443573581733359
 31
0.0
  0
CIRCLE
  5
107DCB
  8
HID
 10
4.3382639053369303
 20
-5.9693573581733359
 30
0.0
 40
0.8625000000000007
  0
CIRCLE
  5
107DCC
  8
HID
 10
3.5257639053369298
 20
-5.0943573581733359
 30
0.0
 40
0.125
  0
CIRCLE
  5
107DCD
  8
CI
 10
3.5257639053369298
 20
-5.0943573581733359
 30
0.0
 40
0.1005
  0
LINE
  5
107DCE
  8
BT-2S-BODY
 10
5.3382639053369303
 20
-4.101294662311691
 30
0.0
 11
3.3382639053369298
 21
-4.101294662311683
 31
0.0
  0
TEXT
  5
107DCF
  8
BT-2P-R
 10
0.3788728251323894
 20
-6.119680404961545
 30
0.0
 40
0.156
  1
BT-2S-A
  7
ADESK1
  0
CIRCLE
  5
107DD0
  8
HID
 10
1.8066356205421901
 20
-3.4362946623116808
 30
0.0
 40
0.125
  0
INSERT
  5
107DD1
  8
CC
  2
CENT-MRK
 10
2.0287752169334921
 20
-3.3127177929397851
 30
0.0
 41
0.296630859375
 42
0.296630859375
 43
0.296630859375
  0
LINE
  5
107DD2
  8
BT-2S-BODY
 10
-0.1933643794578106
 20
-4.1012946623116804
 30
0.0
 11
2.0566356205421892
 21
-4.101294662311683
 31
0.0
  0
CIRCLE
  5
107DD5
  8
BT-2S-BODY
 10
0.0566356205421841
 20
-3.4362946623116808
 30
0.0
 40
0.1005
  0
CIRCLE
  5
107DD6
  8
HID
 10
0.0566356205421841
 20
-3.4362946623116808
 30
0.0
 40
0.125
  0
INSERT
  5
107DD7
  8
CC
  2
CENT-MRK
 10
0.2787752169334852
 20
-3.3127177929397851
 30
0.0
 41
0.296630859375
 42
0.296630859375
 43
0.296630859375
  0
CIRCLE
  5
107DD8
  8
BT-2S-BODY
 10
1.8066356205421901
 20
-3.4362946623116808
 30
0.0
 40
0.1005
  0
INSERT
  5
107DDA
  8
CC
  2
CENT-MRK
 10
4.5604035017282314
 20
-5.8457804888014451
 30
0.0
 41
0.296630859375
 42
0.296630859375
 43
0.296630859375
  0
INSERT
  5
107DDC
  8
CC
  2
CENT-MRK
 10
5.3729035017282314
 20
-6.7207804888014451
 30
0.0
 41
0.296630859375
 42
0.296630859375
 43
0.296630859375
  0
CIRCLE
  5
107DDD
  8
HID
 10
5.1507639053369303
 20
-6.8443573581733359
 30
0.0
 40
0.125
  0
CIRCLE
  5
107DDE
  8
CI
 10
5.1507639053369303
 20
-6.8443573581733359
 30
0.0
 40
0.1005
  0
INSERT
  5
107DDF
  8
CC
  2
CENT-MRK
 10
5.3729035017282314
 20
-4.9707804888014451
 30
0.0
 41
0.296630859375
 42
0.296630859375
 43
0.296630859375
  0
CIRCLE
  5
107DE0
  8
CI
 10
5.1507639053369303
 20
-5.0943573581733359
 30
0.0
 40
0.09375
  0
CIRCLE
  5
107DE3
  8
HID
 10
5.0257639053369303
 20
-3.5412946623116812
 30
0.0
 40
0.2150844733253407
  0
CIRCLE
  5
107DE4
  8
CI
 10
5.0257639053369303
 20
-3.5412946623116812
 30
0.0
 40
0.046875
  0
CIRCLE
  5
107DE5
  8
CI
 10
5.0257639053369303
 20
-3.5412946623116812
 30
0.0
 40
0.1685
  0
LINE
  5
107DE8
  8
BT-2S-BODY
 10
3.3382639053369298
 20
-1.60119466231168
 30
0.0
 11
3.8372639053369322
 21
-1.6011946623116871
 31
0.0
  0
INSERT
  5
107DE9
  8
BT-2S-2-JAW
  2
2_CLOSED
 10
-20.701217826535299
 20
14.92083370870372
 30
0.0
  0
CIRCLE
  5
107DEC
  8
HID
 10
1.8066356205421921
 20
-2.4362946623116879
 30
0.0
 40
0.125
  0
INSERT
  5
107DED
  8
CC
  2
CENT-MRK
 10
2.0287752169334929
 20
-2.3127177929397931
 30
0.0
 41
0.296630859375
 42
0.296630859375
 43
0.296630859375
  0
INSERT
  5
107DEE
  8
CC
  2
CENT-MRK
 10
2.0287752169334929
 20
-2.8127177929397851
 30
0.0
 41
0.296630859375
 42
0.296630859375
 43
0.296630859375
  0
LINE
  5
107DEF
  8
BT-2S-BODY
 10
2.0566356205421892
 20
-1.6011946623116871
 30
0.0
 11
-0.1933643794578088
 21
-1.6011946623116839
 31
0.0
  0
CIRCLE
  5
107DF0
  8
BT-2S-BODY
 10
0.0566356205421859
 20
-2.9362946623116808
 30
0.0
 40
0.09375
  0
INSERT
  5
107DF1
  8
CC
  2
CENT-MRK
 10
0.2787752169334869
 20
-2.8127177929397851
 30
0.0
 41
0.296630859375
 42
0.296630859375
 43
0.296630859375
  0
CIRCLE
  5
107DF2
  8
BT-2S-BODY
 10
0.0566356205421859
 20
-2.4362946623116808
 30
0.0
 40
0.1005
  0
CIRCLE
  5
107DF3
  8
HID
 10
0.0566356205421859
 20
-2.4362946623116808
 30
0.0
 40
0.125
  0
INSERT
  5
107DF4
  8
CC
  2
CENT-MRK
 10
0.2787752169334869
 20
-2.3127177929397851
 30
0.0
 41
0.296630859375
 42
0.296630859375
 43
0.296630859375
  0
CIRCLE
  5
107DF5
  8
BT-2S-BODY
 10
1.8066356205421921
 20
-2.9362946623116808
 30
0.0
 40
0.09375
  0
CIRCLE
  5
107DF6
  8
BT-2S-BODY
 10
1.8066356205421921
 20
-2.4362946623116879
 30
0.0
 40
0.1005
  0
LINE
  5
107DF7
  8
B-2P-C
 10
0.3066356205421876
 20
-1.389894662311675
 30
0.0
 11
1.556635620542187
 21
-1.389894662311675
 31
0.0
  0
CIRCLE
  5
107DF8
  8
BT-2S-BODY
 10
0.056635620542193
 20
-1.8511946623116911
 30
0.0
 40
0.0935
  0
LINE
  5
107DF9
  8
B-2P-C
 10
0.3066356205421876
 20
-1.527165921110359
 30
0.0
 11
0.3066356205421876
 21
-1.389894662311675
 31
0.0
  0
CIRCLE
  5
107DFA
  8
BT-2S-BODY
 10
1.806635620542185
 20
-1.8511946623116911
 30
0.0
 40
0.0935
  0
LINE
  5
107DFB
  8
B-2P-C
 10
1.556635620542187
 20
-1.389894662311675
 30
0.0
 11
1.556635620542187
 21
-1.527165921110363
 31
0.0
  0
LINE
  5
107DFF
  8
BT-2S-BODY
 10
3.8372639053369322
 20
-1.6011946623116871
 30
0.0
 11
3.8372639053369322
 21
-2.2261946623116802
 31
0.0
  0
LINE
  5
107E00
  8
BT-2S-BODY
 10
4.8392639053369351
 20
-2.2261946623116842
 30
0.0
 11
4.8392639053369271
 21
-1.6011946623116871
 31
0.0
  0
LINE
  5
107E01
  8
BT-2S-BODY
 10
3.8372639053369322
 20
-2.2261946623116802
 30
0.0
 11
4.8392639053369351
 21
-2.2261946623116842
 31
0.0
  0
CIRCLE
  5
107E02
  8
HID
 10
5.0257639053369374
 20
-2.8511946623116802
 30
0.0
 40
0.2150844733253407
  0
CIRCLE
  5
107E03
  8
CI
 10
5.0257639053369374
 20
-2.8541946623116838
 30
0.0
 40
0.1685
  0
CIRCLE
  5
107E04
  8
CI
 10
5.0257639053369374
 20
-2.8541946623116838
 30
0.0
 40
0.046875
  0
LINE
  5
107E05
  8
BT-2S-BODY
 10
3.8372639053369322
 20
-1.757694662311692
 30
0.0
 11
3.8382639053369298
 21
-1.757694662311692
 31
0.0
  0
LINE
  5
107E06
  8
BT-2S-BODY
 10
3.8372639053369322
 20
-1.944694662311693
 30
0.0
 11
3.8382639053369298
 21
-1.944694662311693
 31
0.0
  0
LINE
  5
107E07
  8
BT-2S-BODY
 10
4.8392639053369271
 20
-1.6011946623116871
 30
0.0
 11
5.3382639053369303
 21
-1.6011946623116871
 31
0.0
  0
LINE
  5
107E08
  8
BT-2S-BODY
 10
4.8382639053369303
 20
-1.757694662311696
 30
0.0
 11
4.8392639053369271
 21
-1.757694662311696
 31
0.0
  0
LINE
  5
107E09
  8
BT-2S-BODY
 10
4.8382639053369303
 20
-1.944694662311693
 30
0.0
 11
4.8392639053369351
 21
-1.944694662311693
 31
0.0
  0
LINE
  5
1080E2
  8
BT-2S-2-JAW
 10
3.839263905336928
 20
0.2095303615885236
 30
0.0
 11
4.8372639053369326
 21
0.2095303615885236
 31
0.0
  0
LINE
  5
1080E3
  8
BT-2S-2-JAW
 10
3.839263905336928
 20
-2.0416946623117158
 30
0.0
 11
4.8372639053369397
 21
-2.0416946623117158
 31
0.0
  0
LINE
  5
1080E4
  8
BT-2S-2-JAW
 10
3.839263905336928
 20
-2.0416946623117158
 30
0.0
 11
3.839263905336928
 21
0.2095303615885236
 31
0.0
  0
LINE
  5
1080E7
  8
BT-2S-2-JAW
 10
4.8372639053369326
 20
-2.0416946623117158
 30
0.0
 11
4.8372639053369264
 21
0.2095303615885236
 31
0.0
  0
CIRCLE
  5
1081BA
  8
B-2W-JAW
 10
4.0882639053369267
 20
-0.7904696384114766
 30
0.0
 40
0.1325
  0
CIRCLE
  5
1081BB
  8
B-2W-JAW
 10
4.5882639053369267
 20
-0.7904696384114766
 30
0.0
 40
0.1255000000145
  0
INSERT
  5
1081BE
  8
C
  2
CEN-MRK
 10
4.5882639053369267
 20
-0.7904696384114766
 30
0.0
 41
0.3125000000000009
 42
0.3125
 43
0.3125
  0
INSERT
  5
1081BF
  8
C
  2
CEN-MRK
 10
4.0882639053369267
 20
-0.7904696384114766
 30
0.0
 41
0.3125000000000009
 42
0.3125
 43
0.3125
  0
CIRCLE
  5
1081C5
  8
B-2W-JAW
 10
4.0882639053369267
 20
-0.0404696384114765
 30
0.0
 40
0.1255000000145
  0
INSERT
  5
1081C6
  8
C
  2
CEN-MRK
 10
4.0882639053369267
 20
-0.0404696384114765
 30
0.0
 41
0.3125000000000009
 42
0.3125
 43
0.3125
  0
CIRCLE
  5
1081CA
  8
B-2W-JAW
 10
4.5882639053369267
 20
-0.0404696384114765
 30
0.0
 40
0.1325
  0
INSERT
  5
1081CB
  8
C
  2
CEN-MRK
 10
4.5882639053369267
 20
-0.0404696384114765
 30
0.0
 41
0.3125000000000009
 42
0.3125
 43
0.3125
  0
INSERT
  5
10848D
  8
TEXT
  6
CONTINUOUS
  2
*X5
 10
0.0
 20
0.0
 30
0.0
1001
ACAD
1000
HATCH
1002
{
1070
    19
1000
ANSI31
1040
0.06
1040
0.0
1000
R14_HATCH_DATA
1000
10848D
1011
1.0
1021
0.0
1031
0.0
1021
0.0
1031
0.0
1011
0.0
1021
0.0
1031
0.0
1021
1.0
1031
0.0
1011
0.0
1021
0.0
1031
0.0
1021
0.0
1031
1.0
1040
0.0
1010
0.0
1020
0.0
1030
1.0
1000
ANSI31
1070
     0
1070
     0
1071
        2
1071
        7
1070
     1
1070
     1
1071
        3
1040
4.0882639053369267
1040
0.0850303616030236
1040
0.0
1040
4.0882639053369267
1040
-0.0404696384114765
1040
0.0
1040
4.213763905351426
1040
-0.0404696384114765
1040
0.4142135623730951
1071
        0
1071
        7
1070
     1
1070
     1
1071
        3
1040
4.0882639053369267
1040
-0.0404696384114764
1040
0.0
1040
3.9627639053224279
1040
-0.0404696384114764
1040
0.4142135623730951
1040
4.0882639053369267
1040
-0.1659696384259764
1040
0.0
1071
        0
1070
     0
1070
     1
1040
0.0
1040
0.06
1070
     0
1070
     1
1040
0.7853981633974483
1040
-5.7023746629695831
1040
0.0
1040
-0.0053033008588991
1040
0.0053033008588991
1070
     0
1040
0.0014694143818864
1071
        2
1040
4.1670615541976108
1040
0.0311532539898618
1040
0.0
1040
4.0611897379541748
1040
-0.1172575981380159
1040
0.0
1002
}
  0
INSERT
  5
10848E
  8
TEXT
  6
CONTINUOUS
  2
*X6
 10
0.0
 20
0.0
 30
0.0
1001
ACAD
1000
HATCH
1002
{
1070
    19
1000
ANSI31
1040
0.06
1040
0.0
1000
R14_HATCH_DATA
1000
10848E
1011
1.0
1021
0.0
1031
0.0
1021
0.0
1031
0.0
1011
0.0
1021
0.0
1031
0.0
1021
1.0
1031
0.0
1011
0.0
1021
0.0
1031
0.0
1021
0.0
1031
1.0
1040
0.0
1010
0.0
1020
0.0
1030
1.0
1000
ANSI31
1070
     0
1070
     0
1071
        2
1071
        7
1070
     1
1070
     1
1071
        3
1040
4.5882639053369267
1040
-0.6649696383969764
1040
0.0
1040
4.5882639053369267
1040
-0.7904696384114766
1040
0.0
1040
4.713763905351426
1040
-0.7904696384114766
1040
0.4142135623730951
1071
        0
1071
        7
1070
     1
1070
     1
1071
        3
1040
4.5882639053369267
1040
-0.7904696384114766
1040
0.0
1040
4.4627639053224284
1040
-0.7904696384114766
1040
0.4142135623730951
1040
4.5882639053369267
1040
-0.9159696384259763
1040
0.0
1071
        0
1070
     0
1070
     1
1040
0.0
1040
0.06
1070
     0
1070
     1
1040
0.7853981633974483
1040
-5.2023746629695831
1040
-0.75
1040
-0.0053033008588991
1040
0.0053033008588991
1070
     0
1040
0.0014694143818864
1071
        2
1040
4.6670615541976108
1040
-0.7188467460101382
1040
0.0
1040
4.5611897379541748
1040
-0.867257598138016
1040
0.0
1002
}
  0
ENDSEC
  0
EOF
