  0
SECTION
  2
HEADER
  9
$ACADVER
  1
AC1009
  9
$INSBASE
 10
0.0
 20
0.0
 30
0.0
  9
$EXTMIN
 10
4.1129878376471893
 20
4.2525777863913907
 30
0.0
  9
$EXTMAX
 10
12.711592181294931
 20
15.35750971618606
 30
0.0
  9
$LIMMIN
 10
0.0
 20
0.0
  9
$LIMMAX
 10
12.0
 20
9.0
  9
$ORTHOMODE
 70
     0
  9
$REGENMODE
 70
     1
  9
$FILLMODE
 70
     1
  9
$QTEXTMODE
 70
     0
  9
$MIRRTEXT
 70
     1
  9
$DRAGMODE
 70
     2
  9
$LTSCALE
 40
0.5
  9
$OSMODE
 70
     5
  9
$ATTMODE
 70
     1
  9
$TEXTSIZE
 40
0.156
  9
$TRACEWID
 40
0.05
  9
$TEXTSTYLE
  7
ROMANS
  9
$CLAYER
  8
BT-3S-BODY
  9
$CELTYPE
  6
BYLAYER
  9
$CECOLOR
 62
   256
  9
$DIMSCALE
 40
0.75
  9
$DIMASZ
 40
0.18
  9
$DIMEXO
 40
0.09
  9
$DIMDLI
 40
0.38
  9
$DIMRND
 40
0.0
  9
$DIMDLE
 40
0.0
  9
$DIMEXE
 40
0.18
  9
$DIMTP
 40
0.0
  9
$DIMTM
 40
0.0
  9
$DIMTXT
 40
0.156
  9
$DIMCEN
 40
0.09
  9
$DIMTSZ
 40
0.0
  9
$DIMTOL
 70
     0
  9
$DIMLIM
 70
     0
  9
$DIMTIH
 70
     1
  9
$DIMTOH
 70
     1
  9
$DIMSE1
 70
     0
  9
$DIMSE2
 70
     0
  9
$DIMTAD
 70
     0
  9
$DIMZIN
 70
     4
  9
$DIMBLK
  1

  9
$DIMASO
 70
     1
  9
$DIMSHO
 70
     1
  9
$DIMPOST
  1

  9
$DIMAPOST
  1

  9
$DIMALT
 70
     0
  9
$DIMALTD
 70
     2
  9
$DIMALTF
 40
25.399999999999999
  9
$DIMLFAC
 40
1.0
  9
$DIMTOFL
 70
     0
  9
$DIMTVP
 40
0.0
  9
$DIMTIX
 70
     0
  9
$DIMSOXD
 70
     0
  9
$DIMSAH
 70
     0
  9
$DIMBLK1
  1

  9
$DIMBLK2
  1

  9
$DIMSTYLE
  2
STANDARD
  9
$DIMCLRD
 70
   256
  9
$DIMCLRE
 70
   256
  9
$DIMCLRT
 70
   256
  9
$DIMTFAC
 40
1.0
  9
$DIMGAP
 40
0.09
  9
$LUNITS
 70
     2
  9
$LUPREC
 70
     3
  9
$SKETCHINC
 40
0.1
  9
$FILLETRAD
 40
0.0
  9
$AUNITS
 70
     0
  9
$AUPREC
 70
     2
  9
$MENU
  1
acad
  9
$ELEVATION
 40
0.0
  9
$PELEVATION
 40
0.0
  9
$THICKNESS
 40
0.0
  9
$LIMCHECK
 70
     0
  9
$BLIPMODE
 70
     0
  9
$CHAMFERA
 40
0.0
  9
$CHAMFERB
 40
0.0
  9
$SKPOLY
 70
     0
  9
$TDCREATE
 40
2452961.6399195129
  9
$TDUPDATE
 40
2453193.5711792819
  9
$TDINDWG
 40
0.0596540278
  9
$TDUSRTIMER
 40
0.0596533102
  9
$USRTIMER
 70
     1
  9
$ANGBASE
 50
0.0
  9
$ANGDIR
 70
     0
  9
$PDMODE
 70
     0
  9
$PDSIZE
 40
0.0
  9
$PLINEWID
 40
0.0
  9
$COORDS
 70
     0
  9
$SPLFRAME
 70
     0
  9
$SPLINETYPE
 70
     6
  9
$SPLINESEGS
 70
     8
  9
$ATTDIA
 70
     0
  9
$ATTREQ
 70
     1
  9
$HANDLING
 70
 12289
  9
$HANDSEED
  5
108241
  9
$SURFTAB1
 70
    15
  9
$SURFTAB2
 70
    15
  9
$SURFTYPE
 70
     6
  9
$SURFU
 70
     6
  9
$SURFV
 70
     6
  9
$UCSNAME
  2

  9
$UCSORG
 10
0.0
 20
0.0
 30
0.0
  9
$UCSXDIR
 10
1.0
 20
0.0
 30
0.0
  9
$UCSYDIR
 10
0.0
 20
1.0
 30
0.0
  9
$PUCSNAME
  2

  9
$PUCSORG
 10
0.0
 20
0.0
 30
0.0
  9
$PUCSXDIR
 10
1.0
 20
0.0
 30
0.0
  9
$PUCSYDIR
 10
0.0
 20
1.0
 30
0.0
  9
$USERI1
 70
     0
  9
$USERI2
 70
     0
  9
$USERI3
 70
     0
  9
$USERI4
 70
     0
  9
$USERI5
 70
     0
  9
$USERR1
 40
0.0
  9
$USERR2
 40
0.0
  9
$USERR3
 40
0.0
  9
$USERR4
 40
0.0
  9
$USERR5
 40
0.0
  9
$WORLDVIEW
 70
     1
  9
$SHADEDGE
 70
     3
  9
$SHADEDIF
 70
    70
  9
$TILEMODE
 70
     1
  9
$MAXACTVP
 70
    15
  9
$PLIMCHECK
 70
     0
  9
$PEXTMIN
 10
1.0000000000000000E+020
 20
1.0000000000000000E+020
 30
1.0000000000000000E+020
  9
$PEXTMAX
 10
-1.0000000000000000E+020
 20
-1.0000000000000000E+020
 30
-1.0000000000000000E+020
  9
$PLIMMIN
 10
0.0
 20
0.0
  9
$PLIMMAX
 10
12.0
 20
9.0
  9
$UNITMODE
 70
     0
  9
$VISRETAIN
 70
     0
  9
$PLINEGEN
 70
     0
  9
$PSLTSCALE
 70
     1
  0
ENDSEC
  0
SECTION
  2
TABLES
  0
TABLE
  2
VPORT
 70
     3
  0
VPORT
  2
*ACTIVE
 70
     0
 10
0.0
 20
0.0
 11
1.0
 21
1.0
 12
6.2755407677304991
 22
12.051649566883709
 13
0.0
 23
0.0
 14
1.0
 24
1.0
 15
0.0
 25
0.0
 16
0.0
 26
0.0
 36
1.0
 17
2.1367081379429198
 27
-2.2466461518772092
 37
1.552034160738883
 40
11.215604023288231
 41
1.7560975609756091
 42
50.0
 43
0.0
 44
0.0
 50
0.0
 51
0.0
 71
     0
 72
   100
 73
     1
 74
     0
 75
     0
 76
     0
 77
     0
 78
     0
  0
ENDTAB
  0
TABLE
  2
LTYPE
 70
    21
  0
LTYPE
  2
CONTINUOUS
 70
     0
  3
Solid line
 72
    65
 73
     0
 40
0.0
  0
LTYPE
  2
HIDDEN
 70
     0
  3
__ __ __ __ __ __ __ __ __ __ __ __ __ __ __ __
 72
    65
 73
     2
 40
0.375
 49
0.25
 49
-0.125
  0
LTYPE
  2
HIDDEN2
 70
     0
  3
_ _ _ _ _ _ _ _ _ _ _ _ _ _ _ _ _ _ _ _ _ _ _ _
 72
    65
 73
     2
 40
0.1875
 49
0.125
 49
-0.0625
  0
LTYPE
  2
CENTER
 70
     0
  3
____ _ ____ _ ____ _ ____ _ ____ _ ____ _ ____ 
 72
    65
 73
     4
 40
2.0
 49
1.25
 49
-0.25
 49
0.25
 49
-0.25
  0
LTYPE
  2
CENTER2
 70
     0
  3
___ _ ___ _ ___ _ ___ _ ___ _ ___ _ ___ _ ___ _
 72
    65
 73
     4
 40
1.125
 49
0.75
 49
-0.125
 49
0.125
 49
-0.125
  0
LTYPE
  2
CENTERX2
 70
     0
  3
________  __  ________  __  ________  __  _____
 72
    65
 73
     4
 40
4.0
 49
2.5
 49
-0.5
 49
0.5
 49
-0.5
  0
LTYPE
  2
DASHDOT
 70
     0
  3
__ . __ . __ . __ . __ . __ . __ . __ . __ . __
 72
    65
 73
     4
 40
1.0
 49
0.5
 49
-0.25
 49
0.0
 49
-0.25
  0
LTYPE
  2
DASHDOT2
 70
     0
  3
_._._._._._._._._._._._._._._._._._._._._._._._
 72
    65
 73
     4
 40
0.5
 49
0.25
 49
-0.125
 49
0.0
 49
-0.125
  0
LTYPE
  2
DASHDOTX2
 70
     0
  3
____  .  ____  .  ____  .  ____  .  ____  .  __
 72
    65
 73
     4
 40
2.0
 49
1.0
 49
-0.5
 49
0.0
 49
-0.5
  0
LTYPE
  2
DASHED
 70
     0
  3
__ __ __ __ __ __ __ __ __ __ __ __ __ __ __ __
 72
    65
 73
     2
 40
0.75
 49
0.5
 49
-0.25
  0
LTYPE
  2
DASHED2
 70
     0
  3
_ _ _ _ _ _ _ _ _ _ _ _ _ _ _ _ _ _ _ _ _ _ _ _
 72
    65
 73
     2
 40
0.375
 49
0.25
 49
-0.125
  0
LTYPE
  2
DASHEDX2
 70
     0
  3
____  ____  ____  ____  ____  ____  ____  ____ 
 72
    65
 73
     2
 40
1.5
 49
1.0
 49
-0.5
  0
LTYPE
  2
DOT
 70
     0
  3
. . . . . . . . . . . . . . . . . . . . . . . .
 72
    65
 73
     2
 40
0.25
 49
0.0
 49
-0.25
  0
LTYPE
  2
DOT2
 70
     0
  3
...............................................
 72
    65
 73
     2
 40
0.125
 49
0.0
 49
-0.125
  0
LTYPE
  2
DOTX2
 70
     0
  3
.  .  .  .  .  .  .  .  .  .  .  .  .  .  .  . 
 72
    65
 73
     2
 40
0.5
 49
0.0
 49
-0.5
  0
LTYPE
  2
HIDDENX2
 70
     0
  3
____ ____ ____ ____ ____ ____ ____ ____ ____ __
 72
    65
 73
     2
 40
0.75
 49
0.5
 49
-0.25
  0
LTYPE
  2
PHANTOM
 70
     0
  3
______  __  __  ______  __  __  ______  __  __ 
 72
    65
 73
     6
 40
2.5
 49
1.25
 49
-0.25
 49
0.25
 49
-0.25
 49
0.25
 49
-0.25
  0
LTYPE
  2
PHANTOM2
 70
     0
  3
___ _ _ ___ _ _ ___ _ _ ___ _ _ ___ _ _ ___ _ _
 72
    65
 73
     6
 40
1.25
 49
0.625
 49
-0.125
 49
0.125
 49
-0.125
 49
0.125
 49
-0.125
  0
LTYPE
  2
PHANTOMX2
 70
     0
  3
____________    ____    ____    ____________   
 72
    65
 73
     6
 40
5.0
 49
2.5
 49
-0.5
 49
0.5
 49
-0.5
 49
0.5
 49
-0.5
  0
LTYPE
  2
ASULTYPE
 70
     0
  3
Solid line
 72
    65
 73
     2
 40
3.0
 49
2.5
 49
0.5
  0
LTYPE
  2
ASVLTYPE
 70
     0
  3
__ __ __ __ __ __ __ __ __ __ __ __ __ __ __ __ __ __ __ __ __
 72
    65
 73
     2
 40
0.75
 49
0.5
 49
-0.25
  0
ENDTAB
  0
TABLE
  2
LAYER
 70
    12
  0
LAYER
  2
0
 70
     0
 62
     7
  6
CONTINUOUS
  0
LAYER
  2
PART
 70
     0
 62
     3
  6
CONTINUOUS
  0
LAYER
  2
C
 70
     0
 62
     2
  6
CENTER
  0
LAYER
  2
PARTH
 70
     0
 62
     4
  6
HIDDEN
  0
LAYER
  2
CC
 70
     0
 62
     2
  6
CENTER2
  0
LAYER
  2
BALLOON
 70
     0
 62
     7
  6
CONTINUOUS
  0
LAYER
  2
CENTER
 70
     0
 62
     2
  6
CENTER
  0
LAYER
  2
CI
 70
     0
 62
     8
  6
CONTINUOUS
  0
LAYER
  2
HID
 70
     0
 62
     4
  6
HIDDEN
  0
LAYER
  2
BT-3S-BODY
 70
     0
 62
   253
  6
CONTINUOUS
  0
LAYER
  2
B3-CLEVIS
 70
     0
 62
    30
  6
CONTINUOUS
  0
LAYER
  2
BT-3S-1-JAW
 70
     0
 62
   254
  6
CONTINUOUS
  0
ENDTAB
  0
TABLE
  2
STYLE
 70
    10
  0
STYLE
  2
STANDARD
 70
     0
 40
0.0
 41
1.0
 50
0.0
 71
     0
 42
0.2067340150288407
  3
txt
  4

  0
STYLE
  2
ASHADE
 70
     0
 40
0.2
 41
1.0
 50
0.0
 71
     0
 42
0.2
  3
simplex
  4

  0
STYLE
  2
ROMANS
 70
     0
 40
0.0
 41
1.0
 50
0.0
 71
     0
 42
0.156
  3
romans.shx
  4

  0
STYLE
  2
ITALICC
 70
     0
 40
0.0
 41
1.0
 50
0.0
 71
     0
 42
0.156
  3
italicc
  4

  0
STYLE
  2
ROMAND
 70
     0
 40
0.0
 41
1.0
 50
0.0
 71
     0
 42
0.156
  3
romand
  4

  0
STYLE
  2
ITALICT
 70
     0
 40
0.0
 41
1.0
 50
0.0
 71
     0
 42
0.156
  3
italict
  4

  0
STYLE
  2
1
 70
     0
 40
0.0
 41
1.0
 50
0.0
 71
     0
 42
0.156
  3
ROMANS
  4

  0
STYLE
  2
2
 70
     0
 40
0.0
 41
1.0
 50
0.0
 71
     0
 42
0.156
  3
ROMAND
  4

  0
STYLE
  2
3
 70
     0
 40
0.0
 41
1.0
 50
0.0
 71
     0
 42
0.156
  3
ITALICC
  4

  0
STYLE
  2
4
 70
     0
 40
0.0
 41
1.0
 50
0.0
 71
     0
 42
0.156
  3
ITALICT
  4

  0
ENDTAB
  0
TABLE
  2
VIEW
 70
     0
  0
ENDTAB
  0
TABLE
  2
UCS
 70
     0
  0
ENDTAB
  0
TABLE
  2
APPID
 70
     5
  0
APPID
  2
ACAD
 70
     0
  0
APPID
  2
AD_DRAW
 70
     0
  0
APPID
  2
DESIGNERASSEMBLIES
 70
     0
  0
APPID
  2
MCAD_NO_VIS
 70
     0
  0
APPID
  2
ASURF_PCURVE_APPNAME
 70
     0
  0
ENDTAB
  0
TABLE
  2
DIMSTYLE
 70
     7
  0
DIMSTYLE
  2
STANDARD
 70
     0
  3

  4

  5

  6

  7

 40
1.0
 41
0.18
 42
0.0625
 43
0.38
 44
0.18
 45
0.0
 46
0.0
 47
0.0
 48
0.0
140
0.156
141
0.09
142
0.0
143
25.399999999999999
144
1.0
145
0.0
146
1.0
147
0.09
 71
     0
 72
     0
 73
     1
 74
     1
 75
     0
 76
     0
 77
     0
 78
     4
170
     0
171
     2
172
     0
173
     0
174
     0
175
     0
176
   256
177
   256
178
   256
  0
DIMSTYLE
  2
STANDARD$0
 70
     0
  3

  4

  5

  6

  7

 40
1.0
 41
0.18
 42
0.063
 43
0.38
 44
0.18
 45
0.0
 46
0.0
 47
0.0
 48
0.0
140
0.156
141
0.09
142
0.0
143
25.399999999999999
144
1.0
145
0.0
146
1.0
147
0.09
 71
     0
 72
     0
 73
     1
 74
     1
 75
     0
 76
     0
 77
     0
 78
     4
170
     0
171
     2
172
     0
173
     0
174
     0
175
     0
176
   256
177
   256
178
   256
  0
DIMSTYLE
  2
STANDARD$4
 70
     0
  3

  4

  5

  6

  7

 40
1.0
 41
0.18
 42
0.063
 43
0.38
 44
0.18
 45
0.0
 46
0.0
 47
0.0
 48
0.0
140
0.156
141
0.09
142
0.0
143
25.399999999999999
144
1.0
145
0.0
146
1.0
147
0.09
 71
     0
 72
     0
 73
     1
 74
     1
 75
     0
 76
     0
 77
     0
 78
     4
170
     0
171
     2
172
     0
173
     0
174
     0
175
     0
176
   256
177
     0
178
   256
  0
DIMSTYLE
  2
STANDARD$2
 70
     0
  3

  4

  5

  6

  7

 40
1.0
 41
0.18
 42
0.063
 43
0.38
 44
0.18
 45
0.0
 46
0.0
 47
0.0
 48
0.0
140
0.156
141
0.09
142
0.0
143
25.399999999999999
144
1.0
145
0.0
146
1.0
147
0.09
 71
     0
 72
     0
 73
     1
 74
     1
 75
     0
 76
     0
 77
     0
 78
     4
170
     0
171
     2
172
     0
173
     0
174
     0
175
     0
176
   256
177
   256
178
   256
  0
DIMSTYLE
  2
STANDARD$3
 70
     0
  3

  4

  5

  6

  7

 40
1.0
 41
0.18
 42
0.063
 43
0.38
 44
0.18
 45
0.0
 46
0.0
 47
0.0
 48
0.0
140
0.156
141
0.09
142
0.0
143
25.399999999999999
144
1.0
145
0.0
146
1.0
147
0.09
 71
     0
 72
     0
 73
     1
 74
     1
 75
     0
 76
     0
 77
     0
 78
     4
170
     0
171
     2
172
     0
173
     0
174
     0
175
     0
176
   256
177
     0
178
   256
  0
DIMSTYLE
  2
STANDARD$6
 70
     0
  3

  4

  5

  6

  7

 40
1.0
 41
0.18
 42
0.063
 43
0.38
 44
0.18
 45
0.0
 46
0.0
 47
0.0
 48
0.0
140
0.156
141
0.09
142
0.0
143
25.399999999999999
144
1.0
145
0.0
146
1.0
147
0.09
 71
     0
 72
     0
 73
     1
 74
     1
 75
     0
 76
     0
 77
     0
 78
     4
170
     0
171
     2
172
     0
173
     0
174
     0
175
     0
176
     0
177
   256
178
   256
  0
DIMSTYLE
  2
STANDARD$7
 70
     0
  3

  4

  5

  6

  7

 40
1.0
 41
0.18
 42
0.063
 43
0.38
 44
0.18
 45
0.0
 46
0.0
 47
0.0
 48
0.0
140
0.156
141
0.09
142
0.0
143
25.399999999999999
144
1.0
145
0.0
146
1.0
147
0.09
 71
     0
 72
     0
 73
     1
 74
     1
 75
     0
 76
     0
 77
     0
 78
     4
170
     0
171
     2
172
     0
173
     0
174
     0
175
     0
176
   256
177
     0
178
   256
  0
ENDTAB
  0
ENDSEC
  0
SECTION
  2
BLOCKS
  0
BLOCK
  8
0
  2
$MODEL_SPACE
 70
     0
 10
0.0
 20
0.0
 30
0.0
  3
$MODEL_SPACE
  1

  0
ENDBLK
  5
1069DE
  8
0
  0
BLOCK
 67
     1
  8
0
  2
$PAPER_SPACE
 70
     0
 10
0.0
 20
0.0
 30
0.0
  3
$PAPER_SPACE
  1

  0
ENDBLK
  5
1069DC
 67
     1
  8
0
  0
BLOCK
  8
0
  2
*U0
 70
     1
 10
0.0
 20
0.0
 30
0.0
  3
*U0
  1

  0
ENDBLK
  5
106A2B
  8
0
  0
BLOCK
  8
0
  2
CENT-MRK
 70
     0
 10
0.0
 20
0.0
 30
0.0
  3
CENT-MRK
  1

  0
LINE
  5
107B7D
  8
C
 10
-0.748875544706806
 20
-0.9166015283516699
 30
0.0
 11
-0.748875544706806
 21
0.0833984716483301
 31
0.0
  0
LINE
  5
107B7E
  8
C
 10
-1.248875544706805
 20
-0.41660152835167
 30
0.0
 11
-0.2488755447068058
 21
-0.41660152835167
 31
0.0
  0
ENDBLK
  5
107B80
  8
0
  0
BLOCK
  8
0
  2
J_CLOSED
 70
     0
 10
0.0
 20
0.0
 30
0.0
  3
J_CLOSED
  1

  0
LINE
  5
107B82
  8
BT-3S-1-JAW
  6
HIDDEN
 10
-35.984422158496422
 20
-5.9489216644467851
 30
0.0
 11
-35.957918723605502
 21
-5.645986017440574
 31
0.0
  0
LINE
  5
107B83
  8
BT-3S-1-JAW
  6
HIDDEN
 10
-35.957918723605502
 20
-5.9512404145442401
 30
0.0
 11
-35.984422158496422
 21
-5.9489216644467851
 31
0.0
  0
LINE
  5
107B84
  8
BT-3S-1-JAW
  6
HIDDEN
 10
-32.431415288714597
 20
-5.9489216644467859
 30
0.0
 11
-32.457918723605502
 21
-5.6459860174408734
 31
0.0
  0
LINE
  5
107B85
  8
BT-3S-1-JAW
  6
HIDDEN
 10
-32.457918723605502
 20
-5.9512404145442384
 30
0.0
 11
-32.431415288714597
 21
-5.9489216644467859
 31
0.0
  0
LINE
  5
107B86
  8
BT-3S-1-JAW
  6
HIDDEN
 10
-34.045546482130227
 20
-4.7098875686921211
 30
0.0
 11
-32.551254434992629
 21
-4.5791539545706348
 31
0.0
  0
LINE
  5
107B87
  8
BT-3S-1-JAW
  6
HIDDEN
 10
-34.370290965080791
 20
-4.7098875686921202
 30
0.0
 11
-35.864583012218397
 21
-4.579153954570633
 31
0.0
  0
LINE
  5
107B88
  8
BT-3S-1-JAW
  6
HIDDEN
 10
-35.926804174015558
 20
-5.2903450882508061
 30
0.0
 11
-35.864583012218397
 21
-4.579153954570633
 31
0.0
  0
LINE
  5
107B89
  8
BT-3S-1-JAW
  6
HIDDEN
 10
-34.370290965080777
 20
-4.7098875686921211
 30
0.0
 11
-34.421074417700538
 21
-5.2903450882508061
 31
0.0
  0
LINE
  5
107B8A
  8
BT-3S-1-JAW
  6
HIDDEN
 10
-34.045546482130241
 20
-4.7098875686921211
 30
0.0
 11
-33.994763029510487
 21
-5.2903450882508061
 31
0.0
  0
LINE
  5
107B8B
  8
BT-3S-1-JAW
  6
HIDDEN
 10
-32.489033273195453
 20
-5.2903450882508061
 30
0.0
 11
-32.551254434992629
 21
-4.5791539545706348
 31
0.0
  0
ENDBLK
  5
107B8D
  8
0
  0
BLOCK
  8
0
  2
OPEN
 70
     0
 10
0.0
 20
0.0
 30
0.0
  3
OPEN
  1

  0
LINE
  5
107B8F
  8
BT-3S-1-JAW
 10
-29.717983038315161
 20
-4.2000807248137617
 30
0.0
 11
-31.077444718870119
 21
-4.8340081174248084
 31
0.0
  0
LINE
  5
107B90
  8
BT-3S-1-JAW
 10
-29.71798303831515
 20
-4.2000807248137599
 30
0.0
 11
-29.20958441623096
 21
-5.2903450882508061
 31
0.0
  0
LINE
  5
107B91
  8
BT-3S-1-JAW
 10
-30.656980323190808
 20
-5.7356969237869402
 30
0.0
 11
-31.077444718870119
 21
-4.8340081174248084
 31
0.0
  0
ARC
  5
107B92
  8
BT-3S-1-JAW
 10
-29.551961009533741
 20
-5.2955541092276874
 30
0.0
 40
0.125
 50
2.3883309298509099
 51
177.61166907014911
  0
LINE
  5
107B93
  8
BT-3S-1-JAW
 10
-28.095977608066502
 20
-4.2000807248137644
 30
0.0
 11
-28.604376230150692
 21
-5.2903450882508061
 31
0.0
  0
ARC
  5
107B94
  8
BT-3S-1-JAW
 10
-28.261999636847911
 20
-5.2955541092276919
 30
0.0
 40
0.125
 50
2.388330929853351
 51
177.6116690701466
  0
LINE
  5
107B95
  8
BT-3S-1-JAW
 10
-27.156980323190808
 20
-5.7356969237869206
 30
0.0
 11
-26.73651592751153
 21
-4.8340081174248128
 31
0.0
  0
LINE
  5
107B96
  8
BT-3S-1-JAW
 10
-28.095977608066491
 20
-4.200080724813767
 30
0.0
 11
-26.73651592751153
 21
-4.8340081174248128
 31
0.0
  0
ENDBLK
  5
107B98
  8
0
  0
BLOCK
  8
0
  2
JAW_SD
 70
     0
 10
0.0
 20
0.0
 30
0.0
  3
JAW_SD
  1

  0
LINE
  5
107B9A
  8
BT-3S-1-JAW
 10
-29.416668769778461
 20
-4.6023450882507984
 30
0.0
 11
-29.416668769778461
 21
-5.9773450882507957
 31
0.0
  0
LINE
  5
107B9B
  8
BT-3S-1-JAW
 10
-27.921668769778449
 20
-5.9773450882507948
 30
0.0
 11
-27.921668769778449
 21
-4.6023450882507984
 31
0.0
  0
LINE
  5
107B9C
  8
BT-3S-1-JAW
 10
-29.416668769778461
 20
-5.9773450882507957
 30
0.0
 11
-27.921668769778449
 21
-5.9773450882507948
 31
0.0
  0
LINE
  5
107B9D
  8
BT-3S-1-JAW
 10
-29.416668769778461
 20
-4.6023450882507984
 30
0.0
 11
-27.921668769778449
 21
-4.6023450882507984
 31
0.0
  0
ENDBLK
  5
107B9F
  8
0
  0
BLOCK
  8
0
  2
CEN-MRK
 70
     0
 10
0.0
 20
0.0
 30
0.0
  3
CEN-MRK
  1

  0
LINE
  5
107BA1
  8
C
 10
0.0
 20
0.5
 30
0.0
 11
0.0
 21
-0.5000000000000001
 31
0.0
  0
LINE
  5
107BA2
  8
C
 10
0.5000000000000002
 20
0.0
 30
0.0
 11
-0.5
 21
0.0
 31
0.0
  0
ENDBLK
  5
107BA4
  8
0
  0
ENDSEC
  0
SECTION
  2
ENTITIES
  0
LINE
  5
107C18
  8
BT-3S-BODY
 10
9.7115921812949324
 20
4.5025777863913907
 30
0.0
 11
9.7115921812949342
 21
7.5025777863913907
 31
0.0
  0
LINE
  5
107C19
  8
BT-3S-BODY
 10
12.711592181294931
 20
4.2525777863913907
 30
0.0
 11
12.711592181294931
 21
7.5025777863913907
 31
0.0
  0
CIRCLE
  5
107C1A
  8
HID
 10
11.211592181294931
 20
6.0025777863913907
 30
0.0
 40
1.0609999999999991
  0
CIRCLE
  5
107C1B
  8
BT-3S-BODY
 10
11.211592181294931
 20
6.0025777863913907
 30
0.0
 40
1.0004999999999991
  0
INSERT
  5
107C1C
  8
C
  2
CEN-MRK
 10
11.211592181294931
 20
6.0025777863913907
 30
0.0
 41
0.5
 42
0.4999999999999983
 43
0.5
 50
90.0
  0
LINE
  5
107C1D
  8
BT-3S-BODY
 10
9.7115921812949342
 20
4.2525777863913907
 30
0.0
 11
12.711592181294931
 21
4.2525777863913907
 31
0.0
  0
LINE
  5
107C1E
  8
BT-3S-BODY
 10
9.7115921812949324
 20
4.5025777863913907
 30
0.0
 11
12.711592181294931
 21
4.5025777863913907
 31
0.0
  0
CIRCLE
  5
107C1F
  8
HID
 10
12.336592181294931
 20
4.8775777863913907
 30
0.0
 40
0.156
  0
CIRCLE
  5
107C20
  8
CI
 10
12.336592181294931
 20
4.8775777863913907
 30
0.0
 40
0.125
  0
INSERT
  5
107C21
  8
C
  2
CEN-MRK
 10
12.336592181294931
 20
4.8775777863913907
 30
0.0
 41
0.375
 42
0.375
 43
0.375
 50
90.0
  0
CIRCLE
  5
107C22
  8
CI
 10
10.086592181294931
 20
4.8775777863913907
 30
0.0
 40
0.125
  0
INSERT
  5
107C23
  8
C
  2
CEN-MRK
 10
10.086592181294931
 20
4.8775777863913907
 30
0.0
 41
0.375
 42
0.375
 43
0.375
 50
90.0
  0
LINE
  5
107C24
  8
BT-3S-BODY
 10
9.7115921812949324
 20
4.5025777863913907
 30
0.0
 11
9.7115921812949342
 21
4.2525777863913907
 31
0.0
  0
LINE
  5
107C25
  8
BT-3S-BODY
 10
9.7115921812949342
 20
7.7275777713913882
 30
0.0
 11
12.711592181294931
 21
7.7275777713913882
 31
0.0
  0
LINE
  5
107C26
  8
BT-3S-BODY
 10
9.7115921812949342
 20
7.5025777863913907
 30
0.0
 11
12.711592181294931
 21
7.5025777863913907
 31
0.0
  0
INSERT
  5
107C27
  8
C
  2
CEN-MRK
 10
12.336592181294931
 20
7.1275777863913907
 30
0.0
 41
0.375
 42
0.375
 43
0.375
 50
90.0
  0
LINE
  5
107C28
  8
BT-3S-BODY
 10
12.711592181294931
 20
7.5025777863913907
 30
0.0
 11
12.711592181294931
 21
7.7275777713913882
 31
0.0
  0
CIRCLE
  5
107C29
  8
CI
 10
12.336592181294931
 20
7.1275777863913907
 30
0.0
 40
0.125
  0
INSERT
  5
107C2A
  8
C
  2
CEN-MRK
 10
10.086592181294931
 20
7.1275777863913907
 30
0.0
 41
0.375
 42
0.375
 43
0.375
 50
90.0
  0
CIRCLE
  5
107C2B
  8
HID
 10
10.086592181294931
 20
7.1275777863913907
 30
0.0
 40
0.156
  0
CIRCLE
  5
107C2C
  8
CI
 10
10.086592181294931
 20
7.1275777863913907
 30
0.0
 40
0.125
  0
LINE
  5
107C2D
  8
BT-3S-BODY
 10
9.7115921812949342
 20
7.5025777863913907
 30
0.0
 11
9.7115921812949342
 21
7.7275777713913882
 31
0.0
  0
LINE
  5
107C2E
  8
BT-3S-BODY
 10
4.5334522333264946
 20
12.13881424721971
 30
0.0
 11
8.0334522333264964
 21
12.13881424721971
 31
0.0
  0
LINE
  5
107C2F
  8
B3-CLEVIS
 10
6.7582637445232638
 20
12.508114247219689
 30
0.0
 11
5.8086407221297121
 21
12.508114247219689
 31
0.0
  0
LINE
  5
107C30
  8
BT-3S-BODY
 10
4.7834522333265017
 20
8.5770466218097852
 30
0.0
 11
7.7834522333265017
 21
8.5770466218097852
 31
0.0
  0
INSERT
  5
107C31
  8
BT-3S-1-JAW
  2
J_CLOSED
 10
40.491370956932002
 20
17.429159335470519
 30
0.0
  0
INSERT
  5
107C32
  8
BT-3S-1-JAW
  2
OPEN
 10
35.190432556517308
 20
17.429159335470519
 30
0.0
  0
CIRCLE
  5
107C33
  8
BT-3S-BODY
 10
5.1584522333265088
 20
9.9825642472197131
 30
0.0
 40
0.125
  0
INSERT
  5
107C34
  8
C
  2
CEN-MRK
 10
5.1584522333265088
 20
9.9825642472197131
 30
0.0
 41
0.375
 42
0.375
 43
0.375
  0
LINE
  5
107C35
  8
BT-3S-BODY
 10
4.7834522333265017
 20
10.76381424721971
 30
0.0
 11
4.7834522333265017
 21
8.5770466218097852
 31
0.0
  0
CIRCLE
  5
107C36
  8
BT-3S-BODY
 10
5.1584522333265017
 20
9.3263142472197131
 30
0.0
 40
0.125
  0
CIRCLE
  5
107C37
  8
PARTH
 10
5.1584522333265017
 20
9.3263142472197131
 30
0.0
 40
0.156
  0
INSERT
  5
107C38
  8
C
  2
CEN-MRK
 10
5.1584522333265017
 20
9.3263142472197131
 30
0.0
 41
0.375
 42
0.375
 43
0.375
  0
CIRCLE
  5
107C39
  8
BT-3S-BODY
 10
4.8454522333265002
 20
11.76381424721971
 30
0.0
 40
0.156
  0
LINE
  5
107C3A
  8
BT-3S-BODY
 10
4.5334522333264946
 20
12.13881424721971
 30
0.0
 11
4.5334522333264946
 21
10.76381424721971
 31
0.0
  0
INSERT
  5
107C3B
  8
C
  2
CEN-MRK
 10
5.1584522333265088
 20
10.63881424721971
 30
0.0
 41
0.375
 42
0.375
 43
0.375
  0
CIRCLE
  5
107C3C
  8
PARTH
 10
5.1584522333265088
 20
10.63881424721971
 30
0.0
 40
0.156
  0
CIRCLE
  5
107C3D
  8
BT-3S-BODY
 10
5.1584522333265088
 20
10.63881424721971
 30
0.0
 40
0.125
  0
LINE
  5
107C3E
  8
BT-3S-BODY
 10
4.7834522333265017
 20
10.76381424721971
 30
0.0
 11
4.5334522333264946
 21
10.763814247219701
 31
0.0
  0
POLYLINE
  5
107C3F
  8
CI
 66
     1
 10
0.0
 20
0.0
 30
0.0
  0
VERTEX
  5
108238
  8
CI
 10
6.6114522333264842
 20
12.53911424721969
 30
0.0
 42
0.1681465202869418
  0
VERTEX
  5
108239
  8
CI
 10
6.4408922333264824
 20
12.707114247219691
 30
0.0
  0
VERTEX
  5
10823A
  8
CI
 10
6.1260122333264801
 20
12.707114247219691
 30
0.0
 42
0.1681465202869418
  0
VERTEX
  5
10823B
  8
CI
 10
5.9554522333264783
 20
12.53911424721969
 30
0.0
  0
VERTEX
  5
10823C
  8
CI
 10
5.9554522333264783
 20
12.508114247219689
 30
0.0
  0
VERTEX
  5
10823D
  8
CI
 10
6.6114522333264842
 20
12.508114247219689
 30
0.0
  0
VERTEX
  5
10823E
  8
CI
 10
6.6114522333264842
 20
12.53911424721969
 30
0.0
  0
VERTEX
  5
10823F
  8
CI
 10
5.9554522333264783
 20
12.53911424721969
 30
0.0
  0
SEQEND
  5
108240
  8
CI
  0
CIRCLE
  5
107C40
  8
BT-3S-BODY
 10
7.4084522333265088
 20
9.9825642472197131
 30
0.0
 40
0.125
  0
INSERT
  5
107C41
  8
C
  2
CEN-MRK
 10
7.4084522333265088
 20
9.9825642472197131
 30
0.0
 41
0.375
 42
0.375
 43
0.375
  0
LINE
  5
107C42
  8
BT-3S-BODY
 10
7.7834522333265017
 20
10.763814247219701
 30
0.0
 11
7.7834522333265017
 21
8.5770466218097852
 31
0.0
  0
LINE
  5
107C43
  8
BT-3S-BODY
 10
9.7115921812949342
 20
8.5770466218097852
 30
0.0
 11
9.7115921812949342
 21
12.13881424721971
 31
0.0
  0
LINE
  5
107C44
  8
BT-3S-BODY
 10
12.711592181294931
 20
8.5770466218097852
 30
0.0
 11
12.711592181294931
 21
12.138814247219701
 31
0.0
  0
TEXT
  5
107C45
  8
BALLOON
 10
5.3930775841008973
 20
6.0123690401695198
 30
0.0
 40
0.219375
  1
BT-3S
  7
ROMANS
  0
INSERT
  5
107C46
  8
C
  2
CEN-MRK
 10
7.4084522333265088
 20
9.3263142472197131
 30
0.0
 41
0.375
 42
0.375
 43
0.375
  0
CIRCLE
  5
107C47
  8
PARTH
 10
7.4084522333265088
 20
9.3263142472197131
 30
0.0
 40
0.156
  0
CIRCLE
  5
107C48
  8
BT-3S-BODY
 10
7.4084522333265088
 20
9.3263142472197131
 30
0.0
 40
0.125
  0
LINE
  5
107C49
  8
BT-3S-BODY
 10
9.7115921812949342
 20
8.5770466218097852
 30
0.0
 11
12.711592181294931
 21
8.5770466218097852
 31
0.0
  0
CIRCLE
  5
107C4A
  8
PARTH
 10
12.086592181294931
 20
9.3270466218097852
 30
0.0
 40
0.2150844733253407
  0
CIRCLE
  5
107C4B
  8
BT-3S-BODY
 10
12.086592181294931
 20
9.3270466218097852
 30
0.0
 40
0.1685
  0
CIRCLE
  5
107C4C
  8
BT-3S-BODY
 10
12.086592181294931
 20
9.3270466218097852
 30
0.0
 40
0.046875
  0
LINE
  5
107C4D
  8
CENTER
 10
11.99659218129494
 20
9.3270466218097852
 30
0.0
 11
12.176592181294939
 21
9.3270466218097852
 31
0.0
  0
LINE
  5
107C4E
  8
CENTER
 10
12.086592181294931
 20
9.2370466218097835
 30
0.0
 11
12.086592181294931
 21
9.4170466218097832
 31
0.0
  0
CIRCLE
  5
107C4F
  8
BT-3S-BODY
 10
7.721452233326497
 20
11.76381424721972
 30
0.0
 40
0.156
  0
LINE
  5
107C50
  8
BT-3S-BODY
 10
8.0334522333264964
 20
12.13881424721971
 30
0.0
 11
8.0334522333264964
 21
10.76381424721972
 31
0.0
  0
LINE
  5
107C51
  8
BT-3S-BODY
 10
11.961592181294931
 20
11.13881424721972
 30
0.0
 11
11.961592181294931
 21
12.13881424721971
 31
0.0
  0
LINE
  5
107C52
  8
BT-3S-BODY
 10
10.46159218129494
 20
11.13881424721972
 30
0.0
 11
10.46159218129494
 21
12.13881424721972
 31
0.0
  0
INSERT
  5
107C53
  8
BT-3S-1-JAW
  2
JAW_SD
 10
39.880759998861109
 20
17.429159335470519
 30
0.0
  0
INSERT
  5
107C54
  8
C
  2
CEN-MRK
 10
7.4084522333265088
 20
10.63881424721971
 30
0.0
 41
0.375
 42
0.375
 43
0.375
  0
CIRCLE
  5
107C55
  8
PARTH
 10
7.4084522333265088
 20
10.63881424721971
 30
0.0
 40
0.156
  0
CIRCLE
  5
107C56
  8
BT-3S-BODY
 10
7.4084522333265088
 20
10.63881424721971
 30
0.0
 40
0.125
  0
LINE
  5
107C57
  8
BT-3S-BODY
 10
8.0334522333264964
 20
10.76381424721971
 30
0.0
 11
7.7834522333265017
 21
10.76381424721971
 31
0.0
  0
CIRCLE
  5
107C58
  8
BT-3S-BODY
 10
12.086592181294931
 20
10.34881424721971
 30
0.0
 40
0.046875
  0
CIRCLE
  5
107C59
  8
BT-3S-BODY
 10
12.086592181294931
 20
10.34881424721971
 30
0.0
 40
0.1685
  0
CIRCLE
  5
107C5A
  8
PARTH
 10
12.086592181294931
 20
10.34881424721971
 30
0.0
 40
0.2150844733253407
  0
LINE
  5
107C5B
  8
CENTER
 10
12.086592181294931
 20
10.258814247219719
 30
0.0
 11
12.086592181294931
 21
10.43881424721971
 31
0.0
  0
LINE
  5
107C5C
  8
CENTER
 10
11.99659218129494
 20
10.34881424721971
 30
0.0
 11
12.176592181294939
 21
10.34881424721971
 31
0.0
  0
LINE
  5
107C5D
  8
BT-3S-BODY
 10
10.461592181294931
 20
11.13881424721972
 30
0.0
 11
11.961592181294931
 21
11.13881424721972
 31
0.0
  0
LINE
  5
107C5E
  8
BT-3S-BODY
 10
9.7115921812949342
 20
12.13881424721972
 30
0.0
 11
10.46159218129494
 21
12.13881424721972
 31
0.0
  0
LINE
  5
107C5F
  8
BT-3S-BODY
 10
11.961592181294931
 20
12.13881424721971
 30
0.0
 11
12.711592181294931
 21
12.138814247219701
 31
0.0
  0
CIRCLE
  5
107C60
  8
BT-3S-1-JAW
 10
5.7829522333265073
 20
14.61000971618606
 30
0.0
 40
0.1285
  0
CIRCLE
  5
107C61
  8
BT-3S-1-JAW
  6
HIDDEN
 10
5.7829522333265073
 20
14.61000971618606
 30
0.0
 40
0.15625
  0
INSERT
  5
107C62
  8
CC
  2
CENT-MRK
 10
6.1105852841357331
 20
14.792272884839919
 30
0.0
 41
0.4375
 42
0.4374999999999983
 43
0.4375
  0
CIRCLE
  5
107C63
  8
BT-3S-1-JAW
 10
5.2829522333265073
 20
14.61000971618606
 30
0.0
 40
0.1285
  0
CIRCLE
  5
107C64
  8
BT-3S-1-JAW
 10
4.7829522333265073
 20
14.61000971618606
 30
0.0
 40
0.1285
  0
CIRCLE
  5
107C65
  8
BT-3S-1-JAW
  6
HIDDEN
 10
4.7829522333265073
 20
14.61000971618606
 30
0.0
 40
0.15625
  0
INSERT
  5
107C66
  8
CC
  2
CENT-MRK
 10
5.1105852841357331
 20
14.792272884839919
 30
0.0
 41
0.4375
 42
0.4374999999999983
 43
0.4375
  0
CIRCLE
  5
107C67
  8
BT-3S-1-JAW
  6
HIDDEN
 10
5.2829522333265073
 20
14.61000971618606
 30
0.0
 40
0.15625
  0
INSERT
  5
107C68
  8
CC
  2
CENT-MRK
 10
5.6105852841357331
 20
14.792272884839919
 30
0.0
 41
0.4375
 42
0.4374999999999983
 43
0.4375
  0
LINE
  5
107C69
  8
BT-3S-1-JAW
 10
6.0329522333265073
 20
13.862509716186061
 30
0.0
 11
6.0329522333265073
 21
15.35750971618606
 31
0.0
  0
LINE
  5
107C6A
  8
BT-3S-1-JAW
 10
4.5329522333265073
 20
13.862509716186061
 30
0.0
 11
4.5329522333265073
 21
15.35750971618606
 31
0.0
  0
LINE
  5
107C6B
  8
BT-3S-1-JAW
 10
6.0329522333265073
 20
13.862509716186061
 30
0.0
 11
4.5329522333265073
 21
13.862509716186061
 31
0.0
  0
CIRCLE
  5
107C6C
  8
BT-3S-1-JAW
 10
5.2829522333265073
 20
14.11000971618606
 30
0.0
 40
0.1255
  0
CIRCLE
  5
107C6D
  8
BT-3S-1-JAW
 10
4.7829522333265073
 20
14.11000971618606
 30
0.0
 40
0.1255
  0
INSERT
  5
107C6E
  8
CC
  2
CENT-MRK
 10
5.1105852841357331
 20
14.292272884839919
 30
0.0
 41
0.4375
 42
0.4374999999999983
 43
0.4375
  0
INSERT
  5
107C6F
  8
CC
  2
CENT-MRK
 10
5.6105852841357331
 20
14.292272884839919
 30
0.0
 41
0.4375
 42
0.4374999999999983
 43
0.4375
  0
CIRCLE
  5
107C70
  8
BT-3S-1-JAW
 10
5.7829522333265073
 20
14.11000971618606
 30
0.0
 40
0.1255
  0
INSERT
  5
107C71
  8
CC
  2
CENT-MRK
 10
6.1105852841357331
 20
14.292272884839919
 30
0.0
 41
0.4375
 42
0.4374999999999983
 43
0.4375
  0
LINE
  5
107C72
  8
BT-3S-1-JAW
 10
4.5329522333265073
 20
15.35750971618606
 30
0.0
 11
6.0329522333265073
 21
15.35750971618606
 31
0.0
  0
CIRCLE
  5
107C73
  8
BT-3S-1-JAW
 10
4.7829522333265073
 20
15.11000971618606
 30
0.0
 40
0.1255
  0
INSERT
  5
107C74
  8
CC
  2
CENT-MRK
 10
5.1105852841357331
 20
15.29227288483991
 30
0.0
 41
0.4375
 42
0.4374999999999983
 43
0.4375
  0
CIRCLE
  5
107C75
  8
BT-3S-1-JAW
 10
5.2829522333265073
 20
15.11000971618606
 30
0.0
 40
0.1255
  0
INSERT
  5
107C76
  8
CC
  2
CENT-MRK
 10
5.6105852841357331
 20
15.29227288483991
 30
0.0
 41
0.4375
 42
0.4374999999999983
 43
0.4375
  0
CIRCLE
  5
107C77
  8
BT-3S-1-JAW
 10
5.7829522333265073
 20
15.11000971618606
 30
0.0
 40
0.1255
  0
INSERT
  5
107C78
  8
CC
  2
CENT-MRK
 10
6.1105852841357331
 20
15.29227288483991
 30
0.0
 41
0.4375
 42
0.4374999999999983
 43
0.4375
  0
LINE
  5
107F0D
  8
BT-3S-BODY
 10
9.7115921812949342
 20
10.76381424721972
 30
0.0
 11
12.711592181294931
 21
10.76381424721971
 31
0.0
  0
ENDSEC
  0
EOF
