  0
SECTION
  2
HEADER
  9
$ACADVER
  1
AC1009
  9
$INSBASE
 10
0.0
 20
0.0
 30
0.0
  9
$EXTMIN
 10
3.1501782502048661
 20
-0.68307197819626
 30
-0.0000000000000053
  9
$EXTMAX
 10
12.67126423271875
 20
13.911621982240421
 30
0.0000000000000099
  9
$LIMMIN
 10
0.0
 20
0.0
  9
$LIMMAX
 10
12.0
 20
9.0
  9
$ORTHOMODE
 70
     0
  9
$REGENMODE
 70
     1
  9
$FILLMODE
 70
     1
  9
$QTEXTMODE
 70
     0
  9
$MIRRTEXT
 70
     1
  9
$DRAGMODE
 70
     2
  9
$LTSCALE
 40
0.5
  9
$OSMODE
 70
     5
  9
$ATTMODE
 70
     1
  9
$TEXTSIZE
 40
0.156
  9
$TRACEWID
 40
0.05
  9
$TEXTSTYLE
  7
ROMANS
  9
$CLAYER
  8
BT-3TP-BODY
  9
$CELTYPE
  6
BYLAYER
  9
$CECOLOR
 62
   256
  9
$DIMSCALE
 40
1.0
  9
$DIMASZ
 40
0.18
  9
$DIMEXO
 40
0.0625
  9
$DIMDLI
 40
0.38
  9
$DIMRND
 40
0.0
  9
$DIMDLE
 40
0.0
  9
$DIMEXE
 40
0.18
  9
$DIMTP
 40
0.0
  9
$DIMTM
 40
0.0
  9
$DIMTXT
 40
0.156
  9
$DIMCEN
 40
0.09
  9
$DIMTSZ
 40
0.0
  9
$DIMTOL
 70
     0
  9
$DIMLIM
 70
     0
  9
$DIMTIH
 70
     1
  9
$DIMTOH
 70
     1
  9
$DIMSE1
 70
     0
  9
$DIMSE2
 70
     0
  9
$DIMTAD
 70
     0
  9
$DIMZIN
 70
     4
  9
$DIMBLK
  1

  9
$DIMASO
 70
     1
  9
$DIMSHO
 70
     1
  9
$DIMPOST
  1

  9
$DIMAPOST
  1

  9
$DIMALT
 70
     0
  9
$DIMALTD
 70
     2
  9
$DIMALTF
 40
25.399999999999999
  9
$DIMLFAC
 40
1.0
  9
$DIMTOFL
 70
     0
  9
$DIMTVP
 40
0.0
  9
$DIMTIX
 70
     0
  9
$DIMSOXD
 70
     0
  9
$DIMSAH
 70
     0
  9
$DIMBLK1
  1

  9
$DIMBLK2
  1

  9
$DIMSTYLE
  2
STANDARD
  9
$DIMCLRD
 70
   256
  9
$DIMCLRE
 70
   256
  9
$DIMCLRT
 70
   256
  9
$DIMTFAC
 40
1.0
  9
$DIMGAP
 40
0.09
  9
$LUNITS
 70
     2
  9
$LUPREC
 70
     3
  9
$SKETCHINC
 40
0.1
  9
$FILLETRAD
 40
0.0
  9
$AUNITS
 70
     0
  9
$AUPREC
 70
     2
  9
$MENU
  1
acad
  9
$ELEVATION
 40
0.0
  9
$PELEVATION
 40
0.0
  9
$THICKNESS
 40
0.0
  9
$LIMCHECK
 70
     0
  9
$BLIPMODE
 70
     0
  9
$CHAMFERA
 40
0.0
  9
$CHAMFERB
 40
0.0
  9
$SKPOLY
 70
     0
  9
$TDCREATE
 40
2452962.390499305
  9
$TDUPDATE
 40
2453193.4571753819
  9
$TDINDWG
 40
0.044089456
  9
$TDUSRTIMER
 40
0.0440883681
  9
$USRTIMER
 70
     1
  9
$ANGBASE
 50
0.0
  9
$ANGDIR
 70
     0
  9
$PDMODE
 70
     0
  9
$PDSIZE
 40
0.0
  9
$PLINEWID
 40
0.0
  9
$COORDS
 70
     0
  9
$SPLFRAME
 70
     0
  9
$SPLINETYPE
 70
     6
  9
$SPLINESEGS
 70
     8
  9
$ATTDIA
 70
     0
  9
$ATTREQ
 70
     1
  9
$HANDLING
 70
 12289
  9
$HANDSEED
  5
10843C
  9
$SURFTAB1
 70
    15
  9
$SURFTAB2
 70
    15
  9
$SURFTYPE
 70
     6
  9
$SURFU
 70
     6
  9
$SURFV
 70
     6
  9
$UCSNAME
  2

  9
$UCSORG
 10
0.0
 20
0.0
 30
0.0
  9
$UCSXDIR
 10
1.0
 20
0.0
 30
0.0
  9
$UCSYDIR
 10
0.0
 20
1.0
 30
0.0
  9
$PUCSNAME
  2

  9
$PUCSORG
 10
0.0
 20
0.0
 30
0.0
  9
$PUCSXDIR
 10
1.0
 20
0.0
 30
0.0
  9
$PUCSYDIR
 10
0.0
 20
1.0
 30
0.0
  9
$USERI1
 70
     0
  9
$USERI2
 70
     0
  9
$USERI3
 70
     0
  9
$USERI4
 70
     0
  9
$USERI5
 70
     0
  9
$USERR1
 40
0.0
  9
$USERR2
 40
0.0
  9
$USERR3
 40
0.0
  9
$USERR4
 40
0.0
  9
$USERR5
 40
0.0
  9
$WORLDVIEW
 70
     1
  9
$SHADEDGE
 70
     3
  9
$SHADEDIF
 70
    70
  9
$TILEMODE
 70
     1
  9
$MAXACTVP
 70
    15
  9
$PLIMCHECK
 70
     0
  9
$PEXTMIN
 10
1.0000000000000000E+020
 20
1.0000000000000000E+020
 30
1.0000000000000000E+020
  9
$PEXTMAX
 10
-1.0000000000000000E+020
 20
-1.0000000000000000E+020
 30
-1.0000000000000000E+020
  9
$PLIMMIN
 10
0.0
 20
0.0
  9
$PLIMMAX
 10
12.0
 20
9.0
  9
$UNITMODE
 70
     0
  9
$VISRETAIN
 70
     0
  9
$PLINEGEN
 70
     0
  9
$PSLTSCALE
 70
     1
  0
ENDSEC
  0
SECTION
  2
TABLES
  0
TABLE
  2
VPORT
 70
     4
  0
VPORT
  2
*ACTIVE
 70
     0
 10
0.0
 20
0.0
 11
1.0
 21
1.0
 12
5.7740131035188913
 22
8.8609211538992891
 13
0.0
 23
0.0
 14
1.0
 24
1.0
 15
0.0
 25
0.0
 16
0.0
 26
0.0
 36
1.0
 17
2.1367081379429198
 27
-2.2466461518772092
 37
1.552034160738883
 40
14.73685007044093
 41
1.7560975609756091
 42
50.0
 43
0.0
 44
0.0
 50
0.0
 51
0.0
 71
     0
 72
   100
 73
     1
 74
     0
 75
     0
 76
     0
 77
     0
 78
     0
  0
ENDTAB
  0
TABLE
  2
LTYPE
 70
    21
  0
LTYPE
  2
CONTINUOUS
 70
     0
  3
Solid line
 72
    65
 73
     0
 40
0.0
  0
LTYPE
  2
HIDDEN
 70
     0
  3
__ __ __ __ __ __ __ __ __ __ __ __ __ __ __ __
 72
    65
 73
     2
 40
0.375
 49
0.25
 49
-0.125
  0
LTYPE
  2
HIDDEN2
 70
     0
  3
_ _ _ _ _ _ _ _ _ _ _ _ _ _ _ _ _ _ _ _ _ _ _ _
 72
    65
 73
     2
 40
0.1875
 49
0.125
 49
-0.0625
  0
LTYPE
  2
CENTER
 70
     0
  3
____ _ ____ _ ____ _ ____ _ ____ _ ____ _ ____ 
 72
    65
 73
     4
 40
2.0
 49
1.25
 49
-0.25
 49
0.25
 49
-0.25
  0
LTYPE
  2
CENTER2
 70
     0
  3
___ _ ___ _ ___ _ ___ _ ___ _ ___ _ ___ _ ___ _
 72
    65
 73
     4
 40
1.125
 49
0.75
 49
-0.125
 49
0.125
 49
-0.125
  0
LTYPE
  2
CENTERX2
 70
     0
  3
________  __  ________  __  ________  __  _____
 72
    65
 73
     4
 40
4.0
 49
2.5
 49
-0.5
 49
0.5
 49
-0.5
  0
LTYPE
  2
DASHDOT
 70
     0
  3
__ . __ . __ . __ . __ . __ . __ . __ . __ . __
 72
    65
 73
     4
 40
1.0
 49
0.5
 49
-0.25
 49
0.0
 49
-0.25
  0
LTYPE
  2
DASHDOT2
 70
     0
  3
_._._._._._._._._._._._._._._._._._._._._._._._
 72
    65
 73
     4
 40
0.5
 49
0.25
 49
-0.125
 49
0.0
 49
-0.125
  0
LTYPE
  2
DASHDOTX2
 70
     0
  3
____  .  ____  .  ____  .  ____  .  ____  .  __
 72
    65
 73
     4
 40
2.0
 49
1.0
 49
-0.5
 49
0.0
 49
-0.5
  0
LTYPE
  2
DASHED
 70
     0
  3
__ __ __ __ __ __ __ __ __ __ __ __ __ __ __ __
 72
    65
 73
     2
 40
0.75
 49
0.5
 49
-0.25
  0
LTYPE
  2
DASHED2
 70
     0
  3
_ _ _ _ _ _ _ _ _ _ _ _ _ _ _ _ _ _ _ _ _ _ _ _
 72
    65
 73
     2
 40
0.375
 49
0.25
 49
-0.125
  0
LTYPE
  2
DASHEDX2
 70
     0
  3
____  ____  ____  ____  ____  ____  ____  ____ 
 72
    65
 73
     2
 40
1.5
 49
1.0
 49
-0.5
  0
LTYPE
  2
DOT
 70
     0
  3
. . . . . . . . . . . . . . . . . . . . . . . .
 72
    65
 73
     2
 40
0.25
 49
0.0
 49
-0.25
  0
LTYPE
  2
DOT2
 70
     0
  3
...............................................
 72
    65
 73
     2
 40
0.125
 49
0.0
 49
-0.125
  0
LTYPE
  2
DOTX2
 70
     0
  3
.  .  .  .  .  .  .  .  .  .  .  .  .  .  .  . 
 72
    65
 73
     2
 40
0.5
 49
0.0
 49
-0.5
  0
LTYPE
  2
HIDDENX2
 70
     0
  3
____ ____ ____ ____ ____ ____ ____ ____ ____ __
 72
    65
 73
     2
 40
0.75
 49
0.5
 49
-0.25
  0
LTYPE
  2
PHANTOM
 70
     0
  3
______  __  __  ______  __  __  ______  __  __ 
 72
    65
 73
     6
 40
2.5
 49
1.25
 49
-0.25
 49
0.25
 49
-0.25
 49
0.25
 49
-0.25
  0
LTYPE
  2
PHANTOM2
 70
     0
  3
___ _ _ ___ _ _ ___ _ _ ___ _ _ ___ _ _ ___ _ _
 72
    65
 73
     6
 40
1.25
 49
0.625
 49
-0.125
 49
0.125
 49
-0.125
 49
0.125
 49
-0.125
  0
LTYPE
  2
PHANTOMX2
 70
     0
  3
____________    ____    ____    ____________   
 72
    65
 73
     6
 40
5.0
 49
2.5
 49
-0.5
 49
0.5
 49
-0.5
 49
0.5
 49
-0.5
  0
LTYPE
  2
ASULTYPE
 70
     0
  3
Solid line
 72
    65
 73
     2
 40
3.0
 49
2.5
 49
0.5
  0
LTYPE
  2
ASVLTYPE
 70
     0
  3
__ __ __ __ __ __ __ __ __ __ __ __ __ __ __ __ __ __ __ __ __
 72
    65
 73
     2
 40
0.75
 49
0.5
 49
-0.25
  0
ENDTAB
  0
TABLE
  2
LAYER
 70
    30
  0
LAYER
  2
0
 70
     0
 62
     7
  6
CONTINUOUS
  0
LAYER
  2
PART
 70
     0
 62
     3
  6
CONTINUOUS
  0
LAYER
  2
C
 70
     0
 62
     2
  6
CENTER
  0
LAYER
  2
PARTH
 70
     0
 62
     4
  6
HIDDEN
  0
LAYER
  2
TEXT
 70
     0
 62
     7
  6
CONTINUOUS
  0
LAYER
  2
JAW
 70
     0
 62
    33
  6
CONTINUOUS
  0
LAYER
  2
BT-3TP-BODY
 70
     0
 62
   253
  6
CONTINUOUS
  0
LAYER
  2
BT-3TP-JAW
 70
     0
 62
    33
  6
CONTINUOUS
  0
ENDTAB
  0
TABLE
  2
STYLE
 70
    10
  0
STYLE
  2
STANDARD
 70
     0
 40
0.0
 41
1.0
 50
0.0
 71
     0
 42
0.2067340150288407
  3
txt
  4

  0
STYLE
  2
ASHADE
 70
     0
 40
0.2
 41
1.0
 50
0.0
 71
     0
 42
0.2
  3
simplex
  4

  0
STYLE
  2
ROMANS
 70
     0
 40
0.0
 41
1.0
 50
0.0
 71
     0
 42
0.156
  3
romans.shx
  4

  0
STYLE
  2
ITALICC
 70
     0
 40
0.0
 41
1.0
 50
0.0
 71
     0
 42
0.156
  3
italicc
  4

  0
STYLE
  2
ROMAND
 70
     0
 40
0.0
 41
1.0
 50
0.0
 71
     0
 42
0.156
  3
romand
  4

  0
STYLE
  2
ITALICT
 70
     0
 40
0.0
 41
1.0
 50
0.0
 71
     0
 42
0.156
  3
italict
  4

  0
STYLE
  2
1
 70
     0
 40
0.0
 41
1.0
 50
0.0
 71
     0
 42
0.156
  3
ROMANS
  4

  0
STYLE
  2
2
 70
     0
 40
0.0
 41
1.0
 50
0.0
 71
     0
 42
0.156
  3
ROMAND
  4

  0
STYLE
  2
3
 70
     0
 40
0.0
 41
1.0
 50
0.0
 71
     0
 42
0.156
  3
ITALICC
  4

  0
STYLE
  2
4
 70
     0
 40
0.0
 41
1.0
 50
0.0
 71
     0
 42
0.156
  3
ITALICT
  4

  0
ENDTAB
  0
TABLE
  2
VIEW
 70
     0
  0
ENDTAB
  0
TABLE
  2
UCS
 70
     0
  0
ENDTAB
  0
TABLE
  2
APPID
 70
     5
  0
APPID
  2
ACAD
 70
     0
  0
APPID
  2
AD_DRAW
 70
     0
  0
APPID
  2
DESIGNERASSEMBLIES
 70
     0
  0
APPID
  2
MCAD_NO_VIS
 70
     0
  0
APPID
  2
ASURF_PCURVE_APPNAME
 70
     0
  0
ENDTAB
  0
TABLE
  2
DIMSTYLE
 70
     7
  0
DIMSTYLE
  2
STANDARD
 70
     0
  3

  4

  5

  6

  7

 40
1.0
 41
0.18
 42
0.0625
 43
0.38
 44
0.18
 45
0.0
 46
0.0
 47
0.0
 48
0.0
140
0.156
141
0.09
142
0.0
143
25.399999999999999
144
1.0
145
0.0
146
1.0
147
0.09
 71
     0
 72
     0
 73
     1
 74
     1
 75
     0
 76
     0
 77
     0
 78
     4
170
     0
171
     2
172
     0
173
     0
174
     0
175
     0
176
   256
177
   256
178
   256
  0
DIMSTYLE
  2
STANDARD$0
 70
     0
  3

  4

  5

  6

  7

 40
1.0
 41
0.18
 42
0.063
 43
0.38
 44
0.18
 45
0.0
 46
0.0
 47
0.0
 48
0.0
140
0.156
141
0.09
142
0.0
143
25.399999999999999
144
1.0
145
0.0
146
1.0
147
0.09
 71
     0
 72
     0
 73
     1
 74
     1
 75
     0
 76
     0
 77
     0
 78
     4
170
     0
171
     2
172
     0
173
     0
174
     0
175
     0
176
   256
177
   256
178
   256
  0
DIMSTYLE
  2
STANDARD$4
 70
     0
  3

  4

  5

  6

  7

 40
1.0
 41
0.18
 42
0.063
 43
0.38
 44
0.18
 45
0.0
 46
0.0
 47
0.0
 48
0.0
140
0.156
141
0.09
142
0.0
143
25.399999999999999
144
1.0
145
0.0
146
1.0
147
0.09
 71
     0
 72
     0
 73
     1
 74
     1
 75
     0
 76
     0
 77
     0
 78
     4
170
     0
171
     2
172
     0
173
     0
174
     0
175
     0
176
   256
177
     0
178
   256
  0
DIMSTYLE
  2
STANDARD$2
 70
     0
  3

  4

  5

  6

  7

 40
1.0
 41
0.18
 42
0.063
 43
0.38
 44
0.18
 45
0.0
 46
0.0
 47
0.0
 48
0.0
140
0.156
141
0.09
142
0.0
143
25.399999999999999
144
1.0
145
0.0
146
1.0
147
0.09
 71
     0
 72
     0
 73
     1
 74
     1
 75
     0
 76
     0
 77
     0
 78
     4
170
     0
171
     2
172
     0
173
     0
174
     0
175
     0
176
   256
177
   256
178
   256
  0
DIMSTYLE
  2
STANDARD$3
 70
     0
  3

  4

  5

  6

  7

 40
1.0
 41
0.18
 42
0.063
 43
0.38
 44
0.18
 45
0.0
 46
0.0
 47
0.0
 48
0.0
140
0.156
141
0.09
142
0.0
143
25.399999999999999
144
1.0
145
0.0
146
1.0
147
0.09
 71
     0
 72
     0
 73
     1
 74
     1
 75
     0
 76
     0
 77
     0
 78
     4
170
     0
171
     2
172
     0
173
     0
174
     0
175
     0
176
   256
177
     0
178
   256
  0
DIMSTYLE
  2
STANDARD$6
 70
     0
  3

  4

  5

  6

  7

 40
1.0
 41
0.18
 42
0.063
 43
0.38
 44
0.18
 45
0.0
 46
0.0
 47
0.0
 48
0.0
140
0.156
141
0.09
142
0.0
143
25.399999999999999
144
1.0
145
0.0
146
1.0
147
0.09
 71
     0
 72
     0
 73
     1
 74
     1
 75
     0
 76
     0
 77
     0
 78
     4
170
     0
171
     2
172
     0
173
     0
174
     0
175
     0
176
     0
177
   256
178
   256
  0
DIMSTYLE
  2
STANDARD$7
 70
     0
  3

  4

  5

  6

  7

 40
1.0
 41
0.18
 42
0.063
 43
0.38
 44
0.18
 45
0.0
 46
0.0
 47
0.0
 48
0.0
140
0.156
141
0.09
142
0.0
143
25.399999999999999
144
1.0
145
0.0
146
1.0
147
0.09
 71
     0
 72
     0
 73
     1
 74
     1
 75
     0
 76
     0
 77
     0
 78
     4
170
     0
171
     2
172
     0
173
     0
174
     0
175
     0
176
   256
177
     0
178
   256
  0
ENDTAB
  0
ENDSEC
  0
SECTION
  2
BLOCKS
  0
BLOCK
  8
0
  2
$MODEL_SPACE
 70
     0
 10
0.0
 20
0.0
 30
0.0
  3
$MODEL_SPACE
  1

  0
ENDBLK
  5
1069DE
  8
0
  0
BLOCK
 67
     1
  8
0
  2
$PAPER_SPACE
 70
     0
 10
0.0
 20
0.0
 30
0.0
  3
$PAPER_SPACE
  1

  0
ENDBLK
  5
1069DC
 67
     1
  8
0
  0
BLOCK
  8
0
  2
*U1
 70
     1
 10
0.0
 20
0.0
 30
0.0
  3
*U1
  1

  0
ENDBLK
  5
106A2B
  8
0
  0
BLOCK
  8
0
  2
3_TP_CLOSED
 70
     0
 10
0.0
 20
0.0
 30
0.0
  3
3_TP_CLOSED
  1

  0
LINE
  5
107B8A
  8
JAW
  6
HIDDEN
 10
-12.621612009903579
 20
3.5120095979024191
 30
0.0
 11
-10.871612009903579
 21
3.5120095979024191
 31
0.0
  0
LINE
  5
107B8B
  8
JAW
  6
HIDDEN
 10
-12.621612009903579
 20
2.8970595979024161
 30
0.0
 11
-12.621612009903579
 21
3.5120095979024208
 31
0.0
  0
LINE
  5
107B8C
  8
JAW
  6
HIDDEN
 10
-10.87161200990357
 20
3.5120095979024191
 30
0.0
 11
-10.87161200990357
 21
2.8970595979024161
 31
0.0
  0
LINE
  5
107B8D
  8
JAW
  6
HIDDEN
 10
-8.6216120082118621
 20
3.5120095979024191
 30
0.0
 11
-10.37161200821186
 21
3.5120095979024191
 31
0.0
  0
LINE
  5
107B8E
  8
JAW
  6
HIDDEN
 10
-10.37161200821186
 20
3.5120095979024191
 30
0.0
 11
-10.37161200821186
 21
2.8970595979024161
 31
0.0
  0
LINE
  5
107B8F
  8
JAW
  6
HIDDEN
 10
-8.6216120082118621
 20
2.8970595979024161
 30
0.0
 11
-8.6216120082118621
 21
3.5120095979024191
 31
0.0
  0
ENDBLK
  5
107B91
  8
0
  0
BLOCK
  8
0
  2
BT-3TP_OPEN
 70
     0
 10
0.0
 20
0.0
 30
0.0
  3
BT-3TP_OPEN
  1

  0
LINE
  5
107B93
  8
JAW
 10
-5.9323218649516356
 20
3.5120095979023769
 30
0.0
 11
-4.1823218649516356
 21
3.5120095979023769
 31
0.0
  0
LINE
  5
107B94
  8
JAW
 10
-5.9323218649516356
 20
2.0120095979023769
 30
0.0
 11
-5.9323218649516356
 21
2.5720095978543731
 31
0.0
  0
LINE
  5
107B95
  8
JAW
 10
-5.8823218641058173
 20
2.0120095979023769
 30
0.0
 11
-5.9323218649516356
 21
2.0120095979023769
 31
0.0
  0
LINE
  5
107B96
  8
JAW
 10
-5.9323218649516356
 20
2.5720095978543731
 30
0.0
 11
-5.9323218649516356
 21
3.5120095979023769
 31
0.0
  0
LINE
  5
107B97
  8
JAW
 10
-5.9323218649516356
 20
2.5720095978543731
 30
0.0
 11
-5.8823218641058261
 21
2.5720095978543731
 31
0.0
  0
LINE
  5
107B98
  8
JAW
 10
-4.1823218649516321
 20
3.5120095979023769
 30
0.0
 11
-4.1823218649516321
 21
2.8970595979024161
 31
0.0
  0
LINE
  5
107B99
  8
JAW
 10
-0.8323218632599216
 20
3.5120095979023769
 30
0.0
 11
-2.582321863259923
 21
3.5120095979023769
 31
0.0
  0
LINE
  5
107B9A
  8
JAW
 10
-2.5823218632599252
 20
3.5120095979023769
 30
0.0
 11
-2.5823218632599252
 21
2.8970595979024161
 31
0.0
  0
LINE
  5
107B9B
  8
JAW
 10
-0.8323218632599216
 20
2.0120095979023769
 30
0.0
 11
-0.8323218632599216
 21
2.5720095978543731
 31
0.0
  0
LINE
  5
107B9C
  8
JAW
 10
-0.8823218641058145
 20
2.0120095979023769
 30
0.0
 11
-0.8323218632599216
 21
2.0120095979023769
 31
0.0
  0
LINE
  5
107B9D
  8
JAW
 10
-0.8323218632599216
 20
2.5720095978543731
 30
0.0
 11
-0.8323218632599216
 21
3.5120095979023769
 31
0.0
  0
LINE
  5
107B9E
  8
JAW
 10
-0.8323218632599216
 20
2.5720095978543731
 30
0.0
 11
-0.8823218641058163
 21
2.5720095978543731
 31
0.0
  0
ENDBLK
  5
107BA0
  8
0
  0
BLOCK
  8
0
  2
JAS_SD
 70
     0
 10
0.0
 20
0.0
 30
0.0
  3
JAS_SD
  1

  0
LINE
  5
107BAF
  8
BT-3TP-JAW
 10
3.2315541149883198
 20
3.6273713233746072
 30
0.0
 11
3.2315541149883198
 21
3.064871323422611
 31
0.0
  0
LINE
  5
107BB0
  8
BT-3TP-JAW
 10
0.9845541149883273
 20
3.064871323422611
 30
0.0
 11
0.9845541149883273
 21
3.6273713233746072
 31
0.0
  0
LINE
  5
107BB1
  8
BT-3TP-JAW
 10
3.2315541149883198
 20
3.064871323422611
 30
0.0
 11
0.9845541149883273
 21
3.064871323422611
 31
0.0
  0
LINE
  5
107BB2
  8
BT-3TP-JAW
 10
1.264304114988327
 20
4.5648713234226088
 30
0.0
 11
2.951804114988327
 21
4.5648713234226088
 31
0.0
  0
LINE
  5
107BB3
  8
BT-3TP-JAW
 10
1.264304114988327
 20
3.6273713233746072
 30
0.0
 11
1.264304114988327
 21
4.5648713234226088
 31
0.0
  0
LINE
  5
107BB4
  8
BT-3TP-JAW
 10
0.9845541149883273
 20
3.6273713233746072
 30
0.0
 11
1.264304114988327
 21
3.6273713233746072
 31
0.0
  0
LINE
  5
107BB5
  8
BT-3TP-JAW
 10
2.951804114988327
 20
4.5648713234226088
 30
0.0
 11
2.951804114988327
 21
3.6273713233746072
 31
0.0
  0
LINE
  5
107BB6
  8
BT-3TP-JAW
 10
2.951804114988327
 20
3.6273713233746072
 30
0.0
 11
3.2315541149883198
 21
3.6273713233746072
 31
0.0
  0
ENDBLK
  5
107BB8
  8
0
  0
BLOCK
  8
0
  2
CENT-MRK
 70
     0
 10
0.0
 20
0.0
 30
0.0
  3
CENT-MRK
  1

  0
LINE
  5
107C73
  8
C
 10
-0.748875544706806
 20
-0.9166015283516699
 30
0.0
 11
-0.748875544706806
 21
0.0833984716483301
 31
0.0
  0
LINE
  5
107C74
  8
C
 10
-1.248875544706805
 20
-0.41660152835167
 30
0.0
 11
-0.2488755447068058
 21
-0.41660152835167
 31
0.0
  0
ENDBLK
  5
107C76
  8
0
  0
BLOCK
  8
0
  2
*U31
 70
     1
 10
0.0
 20
0.0
 30
0.0
  3
*U31
  1

  0
SOLID
  5
108430
  8
BT-3TP-BODY
  6
CONTINUOUS
 10
3.1242514677657178
 20
2.0927531569130262
 30
0.0
 11
2.8852689764891841
 21
2.0615031569130271
 31
0.0
 12
2.9889349984243991
 22
2.0615031569130271
 32
0.0
 13
2.9889349984243991
 23
2.0615031569130271
 33
0.0
210
0.0
220
0.0
230
1.0
  0
SOLID
  5
108431
  8
BT-3TP-BODY
  6
CONTINUOUS
 10
3.1242514677657178
 20
2.0927531569130262
 30
0.0
 11
2.9889349984243991
 21
2.0615031569130271
 31
0.0
 12
2.9889349984243991
 22
2.0146281569130249
 32
0.0
 13
2.9889349984243991
 23
2.0146281569130249
 33
0.0
210
0.0
220
0.0
230
1.0
  0
SOLID
  5
108432
  8
BT-3TP-BODY
  6
CONTINUOUS
 10
2.9889349984244009
 20
2.1240031569130271
 30
0.0
 11
2.8852689764891841
 21
2.0615031569130271
 31
0.0
 12
3.1242514677657178
 22
2.0927531569130262
 32
0.0
 13
3.1242514677657178
 23
2.0927531569130262
 33
0.0
210
0.0
220
0.0
230
1.0
  0
SOLID
  5
108433
  8
BT-3TP-BODY
  6
CONTINUOUS
 10
2.8852689764891841
 20
2.124003156913028
 30
0.0
 11
2.8852689764891841
 21
2.0615031569130271
 31
0.0
 12
2.9889349984244009
 22
2.1240031569130271
 32
0.0
 13
2.9889349984244009
 23
2.1240031569130271
 33
0.0
  0
SOLID
  5
108434
  8
BT-3TP-BODY
  6
CONTINUOUS
 10
2.9889349984243991
 20
2.1708781569130271
 30
0.0
 11
2.9889349984244009
 21
2.1240031569130271
 31
0.0
 12
3.1242514677657178
 22
2.0927531569130262
 32
0.0
 13
3.1242514677657178
 23
2.0927531569130262
 33
0.0
210
0.0
220
0.0
230
1.0
  0
ENDBLK
  5
108436
  8
0
  0
BLOCK
  8
0
  2
*U32
 70
     1
 10
0.0
 20
0.0
 30
0.0
  3
*U32
  1

  0
TEXT
  5
108438
  8
BT-3TP-BODY
 10
8.1556916197107672
 20
12.22060885363674
 30
0.0
 40
0.156000000468
  1
2.35 OPEN  OF
  7
ROMANS
  0
TEXT
  5
108439
  8
BT-3TP-BODY
 10
7.8474059045001976
 20
11.96060885285674
 30
0.0
 40
0.156000000468
  1
FIRST SET OF HOLES
  7
ROMANS
  0
ENDBLK
  5
10843B
  8
0
  0
ENDSEC
  0
SECTION
  2
ENTITIES
  0
LINE
  5
107BED
  8
BT-3TP-BODY
 10
3.2008426148075202
 20
10.11158001135763
 30
0.0
 11
8.2008426148075309
 21
10.11158001135763
 31
0.0
  0
LINE
  5
107BEE
  8
BT-3TP-BODY
 10
8.2008426148075202
 20
7.7915800113576363
 30
0.0
 11
7.2008426148075202
 21
7.7915800113576363
 31
0.0
  0
INSERT
  5
107BEF
  8
JAW
  2
BT-3TP_OPEN
 10
9.0831644789133446
 20
7.2145204134552197
 30
0.0
  0
TEXT
  5
107BF0
  8
TEXT
 10
4.752440325757699
 20
1.865998798645643
 30
0.0
 40
0.312
  1
BT-3TP
  7
ROMANS
  0
LINE
  5
107BF1
  8
BT-3TP-BODY
 10
3.2008426148075202
 20
10.11158001135763
 30
0.0
 11
3.2008426148075091
 21
7.7915800113576363
 31
0.0
  0
LINE
  5
107BF2
  8
BT-3TP-BODY
 10
4.2008426148075086
 20
7.7915800113576363
 30
0.0
 11
3.2008426148075091
 21
7.7915800113576363
 31
0.0
  0
LINE
  5
107BF3
  8
BT-3TP-BODY
 10
4.2008426148075086
 20
5.4765800113576359
 30
0.0
 11
7.2008426148075131
 21
5.4765800113576288
 31
0.0
  0
LINE
  5
107BF4
  8
BT-3TP-BODY
 10
4.2008426148075086
 20
7.7915800113576363
 30
0.0
 11
4.2008426148075086
 21
5.4765800113576359
 31
0.0
  0
CIRCLE
  5
107BF5
  8
PARTH
 10
4.5758426148075158
 20
6.2140900113576354
 30
0.0
 40
0.1559999999999997
  0
CIRCLE
  5
107BF6
  8
BT-3TP-BODY
 10
4.5758426148075158
 20
6.9015800113576349
 30
0.0
 40
0.1251999999999969
  0
CIRCLE
  5
107BF7
  8
PARTH
 10
4.5758426148075158
 20
7.5890800113576349
 30
0.0
 40
0.1559999999999997
  0
LINE
  5
107BF8
  8
BT-3TP-BODY
 10
7.2008426148075202
 20
7.7915800113576363
 30
0.0
 11
7.2008426148075131
 21
5.4765800113576288
 31
0.0
  0
CIRCLE
  5
107BF9
  8
PARTH
 10
6.8258426148075202
 20
6.2140900113576354
 30
0.0
 40
0.1559999999999997
  0
CIRCLE
  5
107BFA
  8
PARTH
 10
6.8258426148075202
 20
7.5890800113576349
 30
0.0
 40
0.1559999999999997
  0
CIRCLE
  5
107BFB
  8
BT-3TP-BODY
 10
6.8258426148075202
 20
6.9015800113576349
 30
0.0
 40
0.1251999999999969
  0
INSERT
  5
107BFC
  8
JAW
  2
3_TP_CLOSED
 10
16.322454623865241
 20
7.2145204134552197
 30
0.0
  0
CIRCLE
  5
107BFF
  8
BT-3TP-BODY
 10
4.2008426148075086
 20
8.7887800113576304
 30
0.0
 40
0.1560000000000059
  0
CIRCLE
  5
107C00
  8
BT-3TP-BODY
 10
7.2008426148075273
 20
8.7887800113576304
 30
0.0
 40
0.1560000000000059
  0
LINE
  5
107C01
  8
BT-3TP-BODY
 10
8.2008426148075202
 20
7.7915800113576363
 30
0.0
 11
8.2008426148075309
 21
10.11158001135763
 31
0.0
  0
LINE
  5
107C02
  8
BT-3TP-BODY
 10
9.6708969754612752
 20
5.4765800113576217
 30
0.0
 11
9.6708969754612752
 21
10.11158001135763
 31
0.0
  0
LINE
  5
107C03
  8
BT-3TP-BODY
 10
12.67089697546127
 20
5.4765800113576217
 30
0.0
 11
12.67089697546127
 21
10.11158001135763
 31
0.0
  0
LINE
  5
107C04
  8
BT-3TP-BODY
 10
9.6708969754612752
 20
7.7915800113576363
 30
0.0
 11
12.67089697546127
 21
7.7915800113576363
 31
0.0
  0
LINE
  5
107C05
  8
BT-3TP-BODY
 10
9.6708969754612752
 20
5.4765800113576217
 30
0.0
 11
12.67089697546127
 21
5.4765800113576217
 31
0.0
  0
CIRCLE
  5
107C06
  8
BT-3TP-BODY
 10
12.04589697546127
 20
6.1363300113576367
 30
0.0
 40
0.0778750000000002
  0
CIRCLE
  5
107C07
  8
PARTH
 10
12.04589697546127
 20
6.1363300113576162
 30
0.0
 40
0.1885224963619587
  0
CIRCLE
  5
107C08
  8
BT-3TP-BODY
 10
12.04589697546127
 20
6.1363300113576136
 30
0.0
 40
0.1695
  0
CIRCLE
  5
107C09
  8
BT-3TP-BODY
 10
12.045896975461281
 20
7.4065300113576473
 30
0.0
 40
0.1695
  0
CIRCLE
  5
107C0A
  8
PARTH
 10
12.045896975461281
 20
7.4065300113576473
 30
0.0
 40
0.1885224963619586
  0
CIRCLE
  5
107C0B
  8
BT-3TP-BODY
 10
12.045896975461281
 20
7.406530011357666
 30
0.0
 40
0.0778750000000002
  0
LINE
  5
107C0C
  8
BT-3TP-BODY
 10
11.796896975461269
 20
8.2366300113576241
 30
0.0
 11
10.544896975461279
 21
8.2366300113576241
 31
0.0
  0
INSERT
  5
107C0D
  8
BT-3TP-JAW
  2
JAS_SD
 10
9.0628428604729532
 20
6.1626336879350241
 30
0.0
  0
LINE
  5
107C0E
  8
BT-3TP-BODY
 10
10.045896975461281
 20
9.2265300113576352
 30
0.0
 11
10.045896975461281
 21
9.7909800113576413
 31
0.0
  0
LINE
  5
107C0F
  8
BT-3TP-BODY
 10
10.544896975461279
 20
8.2366300113576241
 30
0.0
 11
10.54489697546127
 21
9.2265300113576352
 31
0.0
  0
LINE
  5
107C10
  8
BT-3TP-BODY
 10
10.54489697546127
 20
9.2265300113576352
 30
0.0
 11
10.045896975461281
 21
9.2265300113576352
 31
0.0
  0
LINE
  5
107C11
  8
BT-3TP-BODY
 10
10.32714697546127
 20
9.7909800113576431
 30
0.0
 11
10.32714697546127
 21
10.11158001135764
 31
0.0
  0
LINE
  5
107C12
  8
BT-3TP-BODY
 10
10.045896975461281
 20
9.7909800113576431
 30
0.0
 11
10.32714697546127
 21
9.7909800113576431
 31
0.0
  0
LINE
  5
107C13
  8
BT-3TP-BODY
 10
9.6708969754612752
 20
10.11158001135763
 30
0.0
 11
10.32714697546127
 21
10.11158001135763
 31
0.0
  0
LINE
  5
107C14
  8
BT-3TP-BODY
 10
12.01464697546127
 20
10.11158001135763
 30
0.0
 11
12.67089697546127
 21
10.11158001135763
 31
0.0
  0
LINE
  5
107C15
  8
BT-3TP-BODY
 10
12.29589697546127
 20
9.7909800113576431
 30
0.0
 11
12.29589697546127
 21
9.2265300113576352
 31
0.0
  0
LINE
  5
107C16
  8
BT-3TP-BODY
 10
11.79689697546125
 20
9.2265300113576352
 30
0.0
 11
11.796896975461269
 21
8.2366300113576241
 31
0.0
  0
LINE
  5
107C17
  8
BT-3TP-BODY
 10
12.29589697546127
 20
9.2265300113576352
 30
0.0
 11
11.79689697546125
 21
9.2265300113576352
 31
0.0
  0
LINE
  5
107C18
  8
BT-3TP-BODY
 10
12.01464697546127
 20
10.11158001135763
 30
0.0
 11
12.01464697546127
 21
9.7909800113576413
 31
0.0
  0
LINE
  5
107C19
  8
BT-3TP-BODY
 10
12.01464697546127
 20
9.7909800113576431
 30
0.0
 11
12.29589697546127
 21
9.7909800113576431
 31
0.0
  0
INSERT
  5
107CC2
  8
C
  2
CENT-MRK
 10
10.6241074694997
 20
2.8000254581615742
 30
0.0
 41
1.3125
 42
1.3125
 43
1.3125
 50
90.0
  0
CIRCLE
  5
107CCA
  8
BT-3TP-BODY
 10
11.17089697546127
 20
1.8171263057338931
 30
0.0
 40
1.0
  0
CIRCLE
  5
107CCB
  8
PARTH
 10
11.17089697546127
 20
1.8171263057338931
 30
0.0
 40
1.0600000000000001
  0
LINE
  5
107CCF
  8
BT-3TP-BODY
 10
9.6708969754612752
 20
0.3171263057338933
 30
0.0
 11
12.67089697546127
 21
0.3171263057338933
 31
0.0
  0
LINE
  5
107CD0
  8
BT-3TP-BODY
 10
9.6708969754612752
 20
-0.6828736942661174
 30
0.0
 11
12.67089697546127
 21
-0.6828736942661174
 31
0.0
  0
INSERT
  5
107CD4
  8
C
  2
CENT-MRK
 10
12.090850910725679
 20
1.0607134878942719
 30
0.0
 41
0.4921875
 42
0.4921875
 43
0.4921875
 50
90.0
  0
CIRCLE
  5
107CD6
  8
BT-3TP-BODY
 10
12.29589697546127
 20
0.6921263057338934
 30
0.0
 40
0.1285
  0
CIRCLE
  5
107CD8
  8
PARTH
 10
12.29589697546127
 20
0.6921263057338934
 30
0.0
 40
0.1562499999999964
  0
INSERT
  5
107CDC
  8
C
  2
CENT-MRK
 10
9.8921124269095806
 20
0.9685666923541766
 30
0.0
 41
0.369140625
 42
0.369140625
 43
0.369140625
 50
90.0
  0
CIRCLE
  5
107CDF
  8
BT-3TP-BODY
 10
10.04589697546127
 20
0.6921263057338934
 30
0.0
 40
0.1251999999999964
  0
LINE
  5
107CE7
  8
BT-3TP-BODY
 10
9.6708969754612752
 20
4.3171263057338933
 30
0.0
 11
12.67089697546127
 21
4.3171263057338933
 31
0.0
  0
LINE
  5
107CE8
  8
BT-3TP-BODY
 10
9.6708969754612752
 20
3.317126305733896
 30
0.0
 11
12.67089697546127
 21
3.317126305733896
 31
0.0
  0
LINE
  5
107CEA
  8
BT-3TP-BODY
 10
12.67089697546127
 20
-0.6828736942661174
 30
0.0
 11
12.67089697546127
 21
4.3171263057338933
 31
0.0
  0
INSERT
  5
107CEB
  8
C
  2
CENT-MRK
 10
12.14211242690957
 20
3.2185666923541758
 30
0.0
 41
0.369140625
 42
0.369140625
 43
0.369140625
 50
90.0
  0
CIRCLE
  5
107CF7
  8
BT-3TP-BODY
 10
12.295896975461259
 20
2.9421263057338929
 30
0.0
 40
0.1251999999999969
  0
LINE
  5
107CFB
  8
BT-3TP-BODY
 10
9.6708969754612752
 20
4.3171263057338933
 30
0.0
 11
9.6708969754612752
 21
-0.6828736942661174
 31
0.0
  0
INSERT
  5
107CFE
  8
C
  2
CENT-MRK
 10
9.8408509107256847
 20
3.3107134878942719
 30
0.0
 41
0.4921875
 42
0.4921875
 43
0.4921875
 50
90.0
  0
CIRCLE
  5
107CFF
  8
BT-3TP-BODY
 10
10.04589697546127
 20
2.9421263057338929
 30
0.0
 40
0.1285
  0
CIRCLE
  5
107D02
  8
PARTH
 10
10.04589697546127
 20
2.9421263057338929
 30
0.0
 40
0.1562499999999964
  0
INSERT
  5
107DBC
  8
C
  2
CENT-MRK
 10
4.9444297969678948
 20
6.4191360760932223
 30
0.0
 41
0.4921875
 42
0.4921875
 43
0.4921875
  0
CIRCLE
  5
107DBD
  8
BT-3TP-BODY
 10
4.5758426148075158
 20
6.2140900113576354
 30
0.0
 40
0.1285
  0
INSERT
  5
107DBE
  8
C
  2
CENT-MRK
 10
4.9444297969678948
 20
7.7941260760932218
 30
0.0
 41
0.4921875
 42
0.4921875
 43
0.4921875
  0
CIRCLE
  5
107DBF
  8
BT-3TP-BODY
 10
4.5758426148075158
 20
7.5890800113576349
 30
0.0
 40
0.1285
  0
INSERT
  5
107DC0
  8
C
  2
CENT-MRK
 10
7.1944297969678992
 20
7.7941260760932218
 30
0.0
 41
0.4921875
 42
0.4921875
 43
0.4921875
  0
CIRCLE
  5
107DC1
  8
BT-3TP-BODY
 10
6.8258426148075202
 20
7.5890800113576349
 30
0.0
 40
0.1285
  0
INSERT
  5
107DC2
  8
C
  2
CENT-MRK
 10
7.1944297969678992
 20
6.4191360760932223
 30
0.0
 41
0.4921875
 42
0.4921875
 43
0.4921875
  0
CIRCLE
  5
107DC3
  8
BT-3TP-BODY
 10
6.8258426148075202
 20
6.2140900113576354
 30
0.0
 40
0.1285
  0
INSERT
  5
107DC4
  8
C
  2
CENT-MRK
 10
4.8522830014278
 20
7.055364559909326
 30
0.0
 41
0.369140625
 42
0.369140625
 43
0.369140625
  0
INSERT
  5
107DC5
  8
C
  2
CENT-MRK
 10
7.1022830014278027
 20
7.055364559909326
 30
0.0
 41
0.369140625
 42
0.369140625
 43
0.369140625
  0
LINE
  5
107FB4
  8
BT-3TP-JAW
 10
3.1508426139617072
 20
11.94636368548751
 30
0.0
 11
3.1508426139617072
 21
13.62626368548751
 31
0.0
  0
LINE
  5
107FB5
  8
BT-3TP-JAW
 10
4.9008426139617098
 20
11.94636368548751
 30
0.0
 11
4.9008426139617098
 21
13.62626368548751
 31
0.0
  0
INSERT
  5
107FBA
  8
C
  2
CENT-MRK
 10
3.1572554318013282
 20
12.08126762075192
 30
0.0
 41
0.4921875
 42
0.4921875
 43
0.4921875
 50
180.0
  0
LINE
  5
107FBB
  8
BT-3TP-JAW
 10
3.1508426139617072
 20
11.94626368548751
 30
0.0
 11
4.9008426139617098
 21
11.94626368548751
 31
0.0
  0
LINE
  5
107FBC
  8
BT-3TP-JAW
 10
3.1508426139617072
 20
11.66131368548751
 30
0.0
 11
4.6508426139617098
 21
11.66131368548751
 31
0.0
  0
LINE
  5
107FBE
  8
BT-3TP-JAW
 10
3.1508426139617072
 20
11.66131368548751
 30
0.0
 11
3.1508426139617072
 21
11.94636368548751
 31
0.0
  0
CIRCLE
  5
107FC0
  8
BT-3TP-JAW
 10
3.5258426139617072
 20
12.28631368548751
 30
0.0
 40
0.1285
  0
CIRCLE
  5
107FC1
  8
PARTH
 10
3.5258426139617072
 20
12.28631368548751
 30
0.0
 40
0.15625
  0
LINE
  5
107FC4
  8
BT-3TP-JAW
 10
4.6508426139617098
 20
11.66131368548751
 30
0.0
 11
4.9008426139617098
 21
11.91381368548751
 31
0.0
  0
INSERT
  5
107FC9
  8
C
  2
CENT-MRK
 10
4.3022830005819941
 20
12.440098234039199
 30
0.0
 41
0.369140625
 42
0.369140625
 43
0.369140625
  0
INSERT
  5
107FCA
  8
C
  2
CENT-MRK
 10
4.1572554318013282
 20
12.08126762075192
 30
0.0
 41
0.4921875
 42
0.4921875
 43
0.4921875
 50
180.0
  0
CIRCLE
  5
107FCB
  8
BT-3TP-JAW
 10
4.5258426139617072
 20
12.28631368548751
 30
0.0
 40
0.1285
  0
CIRCLE
  5
107FCC
  8
BT-3TP-JAW
 10
4.0258426139617072
 20
12.28631368548751
 30
0.0
 40
0.12525
  0
CIRCLE
  5
107FCD
  8
PARTH
 10
4.5258426139617072
 20
12.28631368548751
 30
0.0
 40
0.15625
  0
LINE
  5
107FD1
  8
BT-3TP-JAW
 10
4.9008426139617098
 20
11.91381368548751
 30
0.0
 11
4.9008426139617098
 21
11.94636368548751
 31
0.0
  0
INSERT
  5
107FD3
  8
C
  2
CENT-MRK
 10
3.1572554318013282
 20
13.08126762075192
 30
0.0
 41
0.4921875
 42
0.4921875
 43
0.4921875
 50
180.0
  0
LINE
  5
107FD5
  8
BT-3TP-JAW
 10
3.1508426139617072
 20
13.911313685487499
 30
0.0
 11
4.6508426139617098
 21
13.911313685487499
 31
0.0
  0
LINE
  5
107FD6
  8
BT-3TP-JAW
 10
3.1508426139617072
 20
13.62636368548751
 30
0.0
 11
4.9008426139617098
 21
13.62636368548751
 31
0.0
  0
CIRCLE
  5
107FDA
  8
PARTH
 10
3.5258426139617072
 20
13.28631368548751
 30
0.0
 40
0.15625
  0
CIRCLE
  5
107FDC
  8
BT-3TP-JAW
 10
3.5258426139617072
 20
13.28631368548751
 30
0.0
 40
0.1285
  0
LINE
  5
107FDD
  8
BT-3TP-JAW
 10
3.1508426139617072
 20
13.62626368548751
 30
0.0
 11
3.1508426139617072
 21
13.911313685487499
 31
0.0
  0
INSERT
  5
107FDF
  8
C
  2
CENT-MRK
 10
4.3022830005819941
 20
13.440098234039199
 30
0.0
 41
0.369140625
 42
0.369140625
 43
0.369140625
  0
INSERT
  5
107FE0
  8
C
  2
CENT-MRK
 10
4.1572554318013282
 20
13.08126762075192
 30
0.0
 41
0.4921875
 42
0.4921875
 43
0.4921875
 50
180.0
  0
CIRCLE
  5
107FE3
  8
PARTH
 10
4.5258426139617072
 20
13.28631368548751
 30
0.0
 40
0.15625
  0
CIRCLE
  5
107FE4
  8
BT-3TP-JAW
 10
4.0258426139617072
 20
13.28631368548751
 30
0.0
 40
0.12525
  0
CIRCLE
  5
107FE7
  8
BT-3TP-JAW
 10
4.5258426139617072
 20
13.28631368548751
 30
0.0
 40
0.1285
  0
LINE
  5
107FE9
  8
BT-3TP-JAW
 10
4.6508426139617098
 20
13.911313685487499
 30
0.0
 11
4.9008426139617098
 21
13.657813685487501
 31
0.0
  0
LINE
  5
107FEA
  8
BT-3TP-JAW
 10
4.9008426139617098
 20
13.62626368548751
 30
0.0
 11
4.9008426139617098
 21
13.657813685487501
 31
0.0
  0
ENDSEC
  0
EOF
