  0
SECTION
  2
HEADER
  9
$ACADVER
  1
AC1009
  9
$INSBASE
 10
0.0
 20
0.0
 30
0.0
  9
$EXTMIN
 10
3.4783975066683648
 20
4.520792703423715
 30
-0.0000000000000053
  9
$EXTMAX
 10
15.89264771006359
 20
16.19742936777746
 30
0.0000000000000099
  9
$LIMMIN
 10
0.0
 20
0.0
  9
$LIMMAX
 10
12.0
 20
9.0
  9
$ORTHOMODE
 70
     1
  9
$REGENMODE
 70
     1
  9
$FILLMODE
 70
     1
  9
$QTEXTMODE
 70
     0
  9
$MIRRTEXT
 70
     1
  9
$DRAGMODE
 70
     2
  9
$LTSCALE
 40
0.5
  9
$OSMODE
 70
     5
  9
$ATTMODE
 70
     1
  9
$TEXTSIZE
 40
0.156
  9
$TRACEWID
 40
0.05
  9
$TEXTSTYLE
  7
ROMANS
  9
$CLAYER
  8
BT-3W-BODY
  9
$CELTYPE
  6
BYLAYER
  9
$CECOLOR
 62
   256
  9
$DIMSCALE
 40
0.75
  9
$DIMASZ
 40
0.18
  9
$DIMEXO
 40
0.0625
  9
$DIMDLI
 40
0.38
  9
$DIMRND
 40
0.0
  9
$DIMDLE
 40
0.0
  9
$DIMEXE
 40
0.18
  9
$DIMTP
 40
0.0
  9
$DIMTM
 40
0.0
  9
$DIMTXT
 40
0.156
  9
$DIMCEN
 40
0.09
  9
$DIMTSZ
 40
0.0
  9
$DIMTOL
 70
     0
  9
$DIMLIM
 70
     0
  9
$DIMTIH
 70
     1
  9
$DIMTOH
 70
     1
  9
$DIMSE1
 70
     0
  9
$DIMSE2
 70
     0
  9
$DIMTAD
 70
     0
  9
$DIMZIN
 70
     4
  9
$DIMBLK
  1

  9
$DIMASO
 70
     1
  9
$DIMSHO
 70
     1
  9
$DIMPOST
  1

  9
$DIMAPOST
  1

  9
$DIMALT
 70
     0
  9
$DIMALTD
 70
     2
  9
$DIMALTF
 40
25.399999999999999
  9
$DIMLFAC
 40
1.0
  9
$DIMTOFL
 70
     0
  9
$DIMTVP
 40
0.0
  9
$DIMTIX
 70
     0
  9
$DIMSOXD
 70
     0
  9
$DIMSAH
 70
     0
  9
$DIMBLK1
  1

  9
$DIMBLK2
  1

  9
$DIMSTYLE
  2
STANDARD
  9
$DIMCLRD
 70
   256
  9
$DIMCLRE
 70
   256
  9
$DIMCLRT
 70
   256
  9
$DIMTFAC
 40
1.0
  9
$DIMGAP
 40
0.09
  9
$LUNITS
 70
     2
  9
$LUPREC
 70
     3
  9
$SKETCHINC
 40
0.1
  9
$FILLETRAD
 40
0.0
  9
$AUNITS
 70
     0
  9
$AUPREC
 70
     2
  9
$MENU
  1
acad
  9
$ELEVATION
 40
0.0
  9
$PELEVATION
 40
0.0
  9
$THICKNESS
 40
0.0
  9
$LIMCHECK
 70
     0
  9
$BLIPMODE
 70
     0
  9
$CHAMFERA
 40
0.0
  9
$CHAMFERB
 40
0.0
  9
$SKPOLY
 70
     0
  9
$TDCREATE
 40
2452962.4319283441
  9
$TDUPDATE
 40
2453193.458841146
  9
$TDINDWG
 40
0.0298291088
  9
$TDUSRTIMER
 40
0.0298283796
  9
$USRTIMER
 70
     1
  9
$ANGBASE
 50
0.0
  9
$ANGDIR
 70
     0
  9
$PDMODE
 70
     0
  9
$PDSIZE
 40
0.0
  9
$PLINEWID
 40
0.0
  9
$COORDS
 70
     0
  9
$SPLFRAME
 70
     0
  9
$SPLINETYPE
 70
     6
  9
$SPLINESEGS
 70
     8
  9
$ATTDIA
 70
     0
  9
$ATTREQ
 70
     1
  9
$HANDLING
 70
 12289
  9
$HANDSEED
  5
108271
  9
$SURFTAB1
 70
    15
  9
$SURFTAB2
 70
    15
  9
$SURFTYPE
 70
     6
  9
$SURFU
 70
     6
  9
$SURFV
 70
     6
  9
$UCSNAME
  2

  9
$UCSORG
 10
0.0
 20
0.0
 30
0.0
  9
$UCSXDIR
 10
1.0
 20
0.0
 30
0.0
  9
$UCSYDIR
 10
0.0
 20
1.0
 30
0.0
  9
$PUCSNAME
  2

  9
$PUCSORG
 10
0.0
 20
0.0
 30
0.0
  9
$PUCSXDIR
 10
1.0
 20
0.0
 30
0.0
  9
$PUCSYDIR
 10
0.0
 20
1.0
 30
0.0
  9
$USERI1
 70
     0
  9
$USERI2
 70
     0
  9
$USERI3
 70
     0
  9
$USERI4
 70
     0
  9
$USERI5
 70
     0
  9
$USERR1
 40
0.0
  9
$USERR2
 40
0.0
  9
$USERR3
 40
0.0
  9
$USERR4
 40
0.0
  9
$USERR5
 40
0.0
  9
$WORLDVIEW
 70
     1
  9
$SHADEDGE
 70
     3
  9
$SHADEDIF
 70
    70
  9
$TILEMODE
 70
     1
  9
$MAXACTVP
 70
    15
  9
$PLIMCHECK
 70
     0
  9
$PEXTMIN
 10
1.0000000000000000E+020
 20
1.0000000000000000E+020
 30
1.0000000000000000E+020
  9
$PEXTMAX
 10
-1.0000000000000000E+020
 20
-1.0000000000000000E+020
 30
-1.0000000000000000E+020
  9
$PLIMMIN
 10
0.0
 20
0.0
  9
$PLIMMAX
 10
12.0
 20
9.0
  9
$UNITMODE
 70
     0
  9
$VISRETAIN
 70
     0
  9
$PLINEGEN
 70
     0
  9
$PSLTSCALE
 70
     1
  0
ENDSEC
  0
SECTION
  2
TABLES
  0
TABLE
  2
VPORT
 70
     4
  0
VPORT
  2
*ACTIVE
 70
     0
 10
0.0
 20
0.0
 11
1.0
 21
1.0
 12
7.5488144704230571
 22
12.60575718747779
 13
0.0
 23
0.0
 14
1.0
 24
1.0
 15
0.0
 25
0.0
 16
0.0
 26
0.0
 36
1.0
 17
2.1367081379429198
 27
-2.2466461518772092
 37
1.552034160738883
 40
11.790370138357179
 41
1.7560975609756091
 42
50.0
 43
0.0
 44
0.0
 50
0.0
 51
0.0
 71
     0
 72
   100
 73
     1
 74
     0
 75
     0
 76
     0
 77
     0
 78
     0
  0
ENDTAB
  0
TABLE
  2
LTYPE
 70
    21
  0
LTYPE
  2
CONTINUOUS
 70
     0
  3
Solid line
 72
    65
 73
     0
 40
0.0
  0
LTYPE
  2
HIDDEN
 70
     0
  3
__ __ __ __ __ __ __ __ __ __ __ __ __ __ __ __
 72
    65
 73
     2
 40
0.375
 49
0.25
 49
-0.125
  0
LTYPE
  2
HIDDEN2
 70
     0
  3
_ _ _ _ _ _ _ _ _ _ _ _ _ _ _ _ _ _ _ _ _ _ _ _
 72
    65
 73
     2
 40
0.1875
 49
0.125
 49
-0.0625
  0
LTYPE
  2
CENTER
 70
     0
  3
____ _ ____ _ ____ _ ____ _ ____ _ ____ _ ____ 
 72
    65
 73
     4
 40
2.0
 49
1.25
 49
-0.25
 49
0.25
 49
-0.25
  0
LTYPE
  2
CENTER2
 70
     0
  3
___ _ ___ _ ___ _ ___ _ ___ _ ___ _ ___ _ ___ _
 72
    65
 73
     4
 40
1.125
 49
0.75
 49
-0.125
 49
0.125
 49
-0.125
  0
LTYPE
  2
CENTERX2
 70
     0
  3
________  __  ________  __  ________  __  _____
 72
    65
 73
     4
 40
4.0
 49
2.5
 49
-0.5
 49
0.5
 49
-0.5
  0
LTYPE
  2
DASHDOT
 70
     0
  3
__ . __ . __ . __ . __ . __ . __ . __ . __ . __
 72
    65
 73
     4
 40
1.0
 49
0.5
 49
-0.25
 49
0.0
 49
-0.25
  0
LTYPE
  2
DASHDOT2
 70
     0
  3
_._._._._._._._._._._._._._._._._._._._._._._._
 72
    65
 73
     4
 40
0.5
 49
0.25
 49
-0.125
 49
0.0
 49
-0.125
  0
LTYPE
  2
DASHDOTX2
 70
     0
  3
____  .  ____  .  ____  .  ____  .  ____  .  __
 72
    65
 73
     4
 40
2.0
 49
1.0
 49
-0.5
 49
0.0
 49
-0.5
  0
LTYPE
  2
DASHED
 70
     0
  3
__ __ __ __ __ __ __ __ __ __ __ __ __ __ __ __
 72
    65
 73
     2
 40
0.75
 49
0.5
 49
-0.25
  0
LTYPE
  2
DASHED2
 70
     0
  3
_ _ _ _ _ _ _ _ _ _ _ _ _ _ _ _ _ _ _ _ _ _ _ _
 72
    65
 73
     2
 40
0.375
 49
0.25
 49
-0.125
  0
LTYPE
  2
DASHEDX2
 70
     0
  3
____  ____  ____  ____  ____  ____  ____  ____ 
 72
    65
 73
     2
 40
1.5
 49
1.0
 49
-0.5
  0
LTYPE
  2
DOT
 70
     0
  3
. . . . . . . . . . . . . . . . . . . . . . . .
 72
    65
 73
     2
 40
0.25
 49
0.0
 49
-0.25
  0
LTYPE
  2
DOT2
 70
     0
  3
...............................................
 72
    65
 73
     2
 40
0.125
 49
0.0
 49
-0.125
  0
LTYPE
  2
DOTX2
 70
     0
  3
.  .  .  .  .  .  .  .  .  .  .  .  .  .  .  . 
 72
    65
 73
     2
 40
0.5
 49
0.0
 49
-0.5
  0
LTYPE
  2
HIDDENX2
 70
     0
  3
____ ____ ____ ____ ____ ____ ____ ____ ____ __
 72
    65
 73
     2
 40
0.75
 49
0.5
 49
-0.25
  0
LTYPE
  2
PHANTOM
 70
     0
  3
______  __  __  ______  __  __  ______  __  __ 
 72
    65
 73
     6
 40
2.5
 49
1.25
 49
-0.25
 49
0.25
 49
-0.25
 49
0.25
 49
-0.25
  0
LTYPE
  2
PHANTOM2
 70
     0
  3
___ _ _ ___ _ _ ___ _ _ ___ _ _ ___ _ _ ___ _ _
 72
    65
 73
     6
 40
1.25
 49
0.625
 49
-0.125
 49
0.125
 49
-0.125
 49
0.125
 49
-0.125
  0
LTYPE
  2
PHANTOMX2
 70
     0
  3
____________    ____    ____    ____________   
 72
    65
 73
     6
 40
5.0
 49
2.5
 49
-0.5
 49
0.5
 49
-0.5
 49
0.5
 49
-0.5
  0
LTYPE
  2
ASULTYPE
 70
     0
  3
Solid line
 72
    65
 73
     2
 40
3.0
 49
2.5
 49
0.5
  0
LTYPE
  2
ASVLTYPE
 70
     0
  3
__ __ __ __ __ __ __ __ __ __ __ __ __ __ __ __ __ __ __ __ __
 72
    65
 73
     2
 40
0.75
 49
0.5
 49
-0.25
  0
ENDTAB
  0
TABLE
  2
LAYER
 70
    29
  0
LAYER
  2
0
 70
     0
 62
     7
  6
CONTINUOUS
  0
LAYER
  2
PART
 70
     0
 62
     3
  6
CONTINUOUS
  0
LAYER
  2
C
 70
     0
 62
     2
  6
CENTER
  0
LAYER
  2
PARTH
 70
     0
 62
     4
  6
HIDDEN
  0
LAYER
  2
TEXT
 70
     0
 62
     7
  6
CONTINUOUS
  0
LAYER
  2
CI
 70
     0
 62
     8
  6
CONTINUOUS
  0
LAYER
  2
BT-3W-BODY
 70
     0
 62
    33
  6
CONTINUOUS
  0
LAYER
  2
B3-CLEVIS
 70
     0
 62
    30
  6
CONTINUOUS
  0
LAYER
  2
B-3W-JAW
 70
     0
 62
   254
  6
CONTINUOUS
  0
LAYER
  2
HID
 70
     0
 62
     4
  6
HIDDEN2
  0
ENDTAB
  0
TABLE
  2
STYLE
 70
    10
  0
STYLE
  2
STANDARD
 70
     0
 40
0.0
 41
1.0
 50
0.0
 71
     0
 42
0.2067340150288407
  3
txt
  4

  0
STYLE
  2
ASHADE
 70
     0
 40
0.2
 41
1.0
 50
0.0
 71
     0
 42
0.2
  3
simplex
  4

  0
STYLE
  2
ROMANS
 70
     0
 40
0.0
 41
1.0
 50
0.0
 71
     0
 42
0.156
  3
romans.shx
  4

  0
STYLE
  2
ITALICC
 70
     0
 40
0.0
 41
1.0
 50
0.0
 71
     0
 42
0.156
  3
italicc
  4

  0
STYLE
  2
ROMAND
 70
     0
 40
0.0
 41
1.0
 50
0.0
 71
     0
 42
0.156
  3
romand
  4

  0
STYLE
  2
ITALICT
 70
     0
 40
0.0
 41
1.0
 50
0.0
 71
     0
 42
0.156
  3
italict
  4

  0
STYLE
  2
1
 70
     0
 40
0.0
 41
1.0
 50
0.0
 71
     0
 42
0.156
  3
ROMANS
  4

  0
STYLE
  2
2
 70
     0
 40
0.0
 41
1.0
 50
0.0
 71
     0
 42
0.156
  3
ROMAND
  4

  0
STYLE
  2
3
 70
     0
 40
0.0
 41
1.0
 50
0.0
 71
     0
 42
0.156
  3
ITALICC
  4

  0
STYLE
  2
4
 70
     0
 40
0.0
 41
1.0
 50
0.0
 71
     0
 42
0.156
  3
ITALICT
  4

  0
ENDTAB
  0
TABLE
  2
VIEW
 70
     0
  0
ENDTAB
  0
TABLE
  2
UCS
 70
     0
  0
ENDTAB
  0
TABLE
  2
APPID
 70
     5
  0
APPID
  2
ACAD
 70
     0
  0
APPID
  2
AD_DRAW
 70
     0
  0
APPID
  2
DESIGNERASSEMBLIES
 70
     0
  0
APPID
  2
MCAD_NO_VIS
 70
     0
  0
APPID
  2
ASURF_PCURVE_APPNAME
 70
     0
  0
ENDTAB
  0
TABLE
  2
DIMSTYLE
 70
     7
  0
DIMSTYLE
  2
STANDARD
 70
     0
  3

  4

  5

  6

  7

 40
0.75
 41
0.18
 42
0.0625
 43
0.38
 44
0.18
 45
0.0
 46
0.0
 47
0.0
 48
0.0
140
0.156
141
0.09
142
0.0
143
25.399999999999999
144
1.0
145
0.0
146
1.0
147
0.09
 71
     0
 72
     0
 73
     1
 74
     1
 75
     0
 76
     0
 77
     0
 78
     4
170
     0
171
     2
172
     0
173
     0
174
     0
175
     0
176
   256
177
   256
178
   256
  0
DIMSTYLE
  2
STANDARD$0
 70
     0
  3

  4

  5

  6

  7

 40
0.75
 41
0.18
 42
0.063
 43
0.38
 44
0.18
 45
0.0
 46
0.0
 47
0.0
 48
0.0
140
0.156
141
0.09
142
0.0
143
25.399999999999999
144
1.0
145
0.0
146
1.0
147
0.09
 71
     0
 72
     0
 73
     1
 74
     1
 75
     0
 76
     0
 77
     0
 78
     4
170
     0
171
     2
172
     0
173
     0
174
     0
175
     0
176
   256
177
   256
178
   256
  0
DIMSTYLE
  2
STANDARD$4
 70
     0
  3

  4

  5

  6

  7

 40
0.75
 41
0.18
 42
0.063
 43
0.38
 44
0.18
 45
0.0
 46
0.0
 47
0.0
 48
0.0
140
0.156
141
0.09
142
0.0
143
25.399999999999999
144
1.0
145
0.0
146
1.0
147
0.09
 71
     0
 72
     0
 73
     1
 74
     1
 75
     0
 76
     0
 77
     0
 78
     4
170
     0
171
     2
172
     0
173
     0
174
     0
175
     0
176
   256
177
     0
178
   256
  0
DIMSTYLE
  2
STANDARD$2
 70
     0
  3

  4

  5

  6

  7

 40
0.75
 41
0.18
 42
0.063
 43
0.38
 44
0.18
 45
0.0
 46
0.0
 47
0.0
 48
0.0
140
0.156
141
0.09
142
0.0
143
25.399999999999999
144
1.0
145
0.0
146
1.0
147
0.09
 71
     0
 72
     0
 73
     1
 74
     1
 75
     0
 76
     0
 77
     0
 78
     4
170
     0
171
     2
172
     0
173
     0
174
     0
175
     0
176
   256
177
   256
178
   256
  0
DIMSTYLE
  2
STANDARD$3
 70
     0
  3

  4

  5

  6

  7

 40
0.75
 41
0.18
 42
0.063
 43
0.38
 44
0.18
 45
0.0
 46
0.0
 47
0.0
 48
0.0
140
0.156
141
0.09
142
0.0
143
25.399999999999999
144
1.0
145
0.0
146
1.0
147
0.09
 71
     0
 72
     0
 73
     1
 74
     1
 75
     0
 76
     0
 77
     0
 78
     4
170
     0
171
     2
172
     0
173
     0
174
     0
175
     0
176
   256
177
     0
178
   256
  0
DIMSTYLE
  2
STANDARD$6
 70
     0
  3

  4

  5

  6

  7

 40
0.75
 41
0.18
 42
0.063
 43
0.38
 44
0.18
 45
0.0
 46
0.0
 47
0.0
 48
0.0
140
0.156
141
0.09
142
0.0
143
25.399999999999999
144
1.0
145
0.0
146
1.0
147
0.09
 71
     0
 72
     0
 73
     1
 74
     1
 75
     0
 76
     0
 77
     0
 78
     4
170
     0
171
     2
172
     0
173
     0
174
     0
175
     0
176
     0
177
   256
178
   256
  0
DIMSTYLE
  2
STANDARD$7
 70
     0
  3

  4

  5

  6

  7

 40
0.75
 41
0.18
 42
0.063
 43
0.38
 44
0.18
 45
0.0
 46
0.0
 47
0.0
 48
0.0
140
0.156
141
0.09
142
0.0
143
25.399999999999999
144
1.0
145
0.0
146
1.0
147
0.09
 71
     0
 72
     0
 73
     1
 74
     1
 75
     0
 76
     0
 77
     0
 78
     4
170
     0
171
     2
172
     0
173
     0
174
     0
175
     0
176
   256
177
     0
178
   256
  0
ENDTAB
  0
ENDSEC
  0
SECTION
  2
BLOCKS
  0
BLOCK
  8
0
  2
$MODEL_SPACE
 70
     0
 10
0.0
 20
0.0
 30
0.0
  3
$MODEL_SPACE
  1

  0
ENDBLK
  5
1069DE
  8
0
  0
BLOCK
 67
     1
  8
0
  2
$PAPER_SPACE
 70
     0
 10
0.0
 20
0.0
 30
0.0
  3
$PAPER_SPACE
  1

  0
ENDBLK
  5
1069DC
 67
     1
  8
0
  0
BLOCK
  8
0
  2
*U1
 70
     1
 10
0.0
 20
0.0
 30
0.0
  3
*U1
  1

  0
ENDBLK
  5
106A2B
  8
0
  0
BLOCK
  8
0
  2
3W_CLOSED
 70
     0
 10
0.0
 20
0.0
 30
0.0
  3
3W_CLOSED
  1

  0
LINE
  5
107B7D
  8
B-3W-JAW
  6
HIDDEN
 10
-20.904925227343838
 20
6.2619558278030398
 30
0.0
 11
-20.904925227343838
 21
3.752398541969618
 31
0.0
  0
LINE
  5
107B7E
  8
B-3W-JAW
  6
HIDDEN
 10
-20.404925227343831
 20
6.2619558278030398
 30
0.0
 11
-20.404925227343831
 21
3.1756214085416281
 31
0.0
  0
LINE
  5
107B7F
  8
B-3W-JAW
  6
HIDDEN
 10
-23.280925227343829
 20
6.2619558278030576
 30
0.0
 11
-23.280925227343829
 21
3.7523985419696362
 31
0.0
  0
LINE
  5
107B80
  8
B-3W-JAW
  6
HIDDEN
 10
-23.780925227343829
 20
6.2619558278030576
 30
0.0
 11
-23.780925227343829
 21
3.1756214085416459
 31
0.0
  0
ARC
  5
107B81
  8
B-3W-JAW
  6
HIDDEN
 10
-22.718925227343831
 20
2.8869558278030598
 30
0.0
 40
0.281
 50
240.0004455215971
 51
60.000445521596767
  0
LINE
  5
107B82
  8
B-3W-JAW
  6
HIDDEN
 10
-23.780925227343829
 20
3.1756214085416459
 30
0.0
 11
-22.859423335069678
 21
2.6436015968444551
 31
0.0
  0
ARC
  5
107B83
  8
B-3W-JAW
  6
HIDDEN
 10
-22.905925227343829
 20
3.7523985419696362
 30
0.0
 40
0.375
 50
180.0
 51
240.0004455215971
  0
LINE
  5
107B84
  8
B-3W-JAW
  6
HIDDEN
 10
-23.093422702066938
 20
3.427637557594271
 30
0.0
 11
-22.57842711961797
 21
3.130310058761665
 31
0.0
  0
ARC
  5
107B85
  8
B-3W-JAW
  6
HIDDEN
 10
-21.466925227343829
 20
2.8869558278030421
 30
0.0
 40
0.281
 50
119.999554478403
 51
299.9995544784029
  0
LINE
  5
107B86
  8
B-3W-JAW
  6
HIDDEN
 10
-20.404925227343831
 20
3.1756214085416281
 30
0.0
 11
-21.326427119617978
 21
2.6436015968444369
 31
0.0
  0
ARC
  5
107B87
  8
B-3W-JAW
  6
HIDDEN
 10
-21.279925227343838
 20
3.752398541969618
 30
0.0
 40
0.375
 50
299.9995544784029
 51
0.0
  0
LINE
  5
107B88
  8
B-3W-JAW
  6
HIDDEN
 10
-21.092427752620718
 20
3.4276375575942541
 30
0.0
 11
-21.60742333506969
 21
3.1303100587616468
 31
0.0
  0
LINE
  5
107B89
  8
B-3W-JAW
  6
HIDDEN
 10
-23.280925227343829
 20
4.7544558278030582
 30
0.0
 11
-23.780925227343818
 21
4.7544558278030582
 31
0.0
  0
LINE
  5
107B8A
  8
B-3W-JAW
  6
HIDDEN
 10
-23.280925227343829
 20
4.7619558278030576
 30
0.0
 11
-23.780925227343829
 21
4.7619558278030576
 31
0.0
  0
LINE
  5
107B8B
  8
B-3W-JAW
  6
HIDDEN
 10
-23.280925227343829
 20
4.7864558278030582
 30
0.0
 11
-23.780925227343829
 21
4.7864558278030582
 31
0.0
  0
LINE
  5
107B8C
  8
B-3W-JAW
  6
HIDDEN
 10
-23.280925227343829
 20
5.0194558278030579
 30
0.0
 11
-23.780925227343818
 21
5.0194558278030579
 31
0.0
  0
LINE
  5
107B8D
  8
B-3W-JAW
  6
HIDDEN
 10
-23.280925227343829
 20
4.9874558278030579
 30
0.0
 11
-23.780925227343829
 21
4.9874558278030579
 31
0.0
  0
LINE
  5
107B8E
  8
B-3W-JAW
  6
HIDDEN
 10
-23.280925227343829
 20
5.0119558278030576
 30
0.0
 11
-23.780925227343829
 21
5.0119558278030576
 31
0.0
  0
LINE
  5
107B8F
  8
B-3W-JAW
  6
HIDDEN
 10
-23.280925227343829
 20
6.0119558278030576
 30
0.0
 11
-23.780925227343829
 21
6.0119558278030576
 31
0.0
  0
LINE
  5
107B90
  8
B-3W-JAW
  6
HIDDEN
 10
-23.280925227343829
 20
5.9874558278030579
 30
0.0
 11
-23.780925227343829
 21
5.9874558278030579
 31
0.0
  0
LINE
  5
107B91
  8
B-3W-JAW
  6
HIDDEN
 10
-23.280925227343829
 20
5.7864558278030582
 30
0.0
 11
-23.780925227343829
 21
5.7864558278030582
 31
0.0
  0
LINE
  5
107B92
  8
B-3W-JAW
  6
HIDDEN
 10
-23.280925227343829
 20
5.7619558278030576
 30
0.0
 11
-23.780925227343829
 21
5.7619558278030576
 31
0.0
  0
LINE
  5
107B93
  8
B-3W-JAW
  6
HIDDEN
 10
-23.280925227343829
 20
5.7544558278030582
 30
0.0
 11
-23.780925227343829
 21
5.7544558278030582
 31
0.0
  0
LINE
  5
107B94
  8
B-3W-JAW
  6
HIDDEN
 10
-23.280925227343829
 20
6.0194558278030579
 30
0.0
 11
-23.780925227343829
 21
6.0194558278030579
 31
0.0
  0
LINE
  5
107B95
  8
B-3W-JAW
  6
HIDDEN
 10
-23.780925227343829
 20
6.2619558278030576
 30
0.0
 11
-23.280925227343829
 21
6.2619558278030576
 31
0.0
  0
LINE
  5
107B96
  8
B-3W-JAW
  6
HIDDEN
 10
-20.904925227343838
 20
4.7544558278030404
 30
0.0
 11
-20.404925227343838
 21
4.7544558278030404
 31
0.0
  0
LINE
  5
107B97
  8
B-3W-JAW
  6
HIDDEN
 10
-20.904925227343838
 20
4.7619558278030398
 30
0.0
 11
-20.404925227343831
 21
4.7619558278030398
 31
0.0
  0
LINE
  5
107B98
  8
B-3W-JAW
  6
HIDDEN
 10
-20.904925227343838
 20
4.7864558278030396
 30
0.0
 11
-20.404925227343831
 21
4.7864558278030396
 31
0.0
  0
LINE
  5
107B99
  8
B-3W-JAW
  6
HIDDEN
 10
-20.904925227343838
 20
5.019455827803041
 30
0.0
 11
-20.404925227343838
 21
5.019455827803041
 31
0.0
  0
LINE
  5
107B9A
  8
B-3W-JAW
  6
HIDDEN
 10
-20.904925227343838
 20
4.9874558278030401
 30
0.0
 11
-20.404925227343831
 21
4.9874558278030401
 31
0.0
  0
LINE
  5
107B9B
  8
B-3W-JAW
  6
HIDDEN
 10
-20.904925227343838
 20
5.0119558278030398
 30
0.0
 11
-20.404925227343831
 21
5.0119558278030398
 31
0.0
  0
LINE
  5
107B9C
  8
B-3W-JAW
  6
HIDDEN
 10
-20.904925227343831
 20
6.0119558278030398
 30
0.0
 11
-20.404925227343831
 21
6.0119558278030398
 31
0.0
  0
LINE
  5
107B9D
  8
B-3W-JAW
  6
HIDDEN
 10
-20.904925227343831
 20
5.9874558278030401
 30
0.0
 11
-20.404925227343831
 21
5.9874558278030401
 31
0.0
  0
LINE
  5
107B9E
  8
B-3W-JAW
  6
HIDDEN
 10
-20.904925227343831
 20
5.7864558278030396
 30
0.0
 11
-20.404925227343831
 21
5.7864558278030396
 31
0.0
  0
LINE
  5
107B9F
  8
B-3W-JAW
  6
HIDDEN
 10
-20.904925227343831
 20
5.7619558278030398
 30
0.0
 11
-20.404925227343831
 21
5.7619558278030398
 31
0.0
  0
LINE
  5
107BA0
  8
B-3W-JAW
  6
HIDDEN
 10
-20.904925227343838
 20
5.7544558278030404
 30
0.0
 11
-20.404925227343831
 21
5.7544558278030404
 31
0.0
  0
LINE
  5
107BA1
  8
B-3W-JAW
  6
HIDDEN
 10
-20.904925227343838
 20
6.019455827803041
 30
0.0
 11
-20.404925227343831
 21
6.019455827803041
 31
0.0
  0
LINE
  5
107BA2
  8
B-3W-JAW
  6
HIDDEN
 10
-20.404925227343831
 20
6.2619558278030398
 30
0.0
 11
-20.904925227343838
 21
6.2619558278030398
 31
0.0
  0
ENDBLK
  5
107BA4
  8
0
  0
BLOCK
  8
0
  2
3W_OPEN
 70
     0
 10
0.0
 20
0.0
 30
0.0
  3
3W_OPEN
  1

  0
LINE
  5
107BA6
  8
B-3W-JAW
 10
-16.09253754701205
 20
3.0782738759101749
 30
0.0
 11
-15.408583187386521
 21
3.8933918130532539
 31
0.0
  0
LINE
  5
107BA7
  8
B-3W-JAW
 10
-16.221341443827608
 20
3.799093838043949
 30
0.0
 11
-15.839102973394739
 21
4.2546351020641833
 31
0.0
  0
LINE
  5
107BA8
  8
B-3W-JAW
  6
HIDDEN
 10
-18.54536958800195
 20
4.0184876498257811
 30
0.0
 11
-18.632193676835421
 21
3.5260837733196739
 31
0.0
  0
LINE
  5
107BA9
  8
B-3W-JAW
  6
HIDDEN
 10
-18.552755646149539
 20
4.0197900111582756
 30
0.0
 11
-18.639579734983009
 21
3.5273861346521729
 31
0.0
  0
LINE
  5
107BAA
  8
B-3W-JAW
  6
HIDDEN
 10
-18.576883436098349
 20
4.0240443915111159
 30
0.0
 11
-18.663707524931809
 21
3.5316405150050141
 31
0.0
  0
LINE
  5
107BAB
  8
B-3W-JAW
  6
HIDDEN
 10
-17.814149831390381
 20
3.8895538779080829
 30
0.0
 11
-17.900973920223851
 21
3.3971500014019802
 31
0.0
  0
LINE
  5
107BAC
  8
B-3W-JAW
  6
HIDDEN
 10
-17.790022041441588
 20
3.8852994975552431
 30
0.0
 11
-17.876846130275059
 21
3.3928956210491399
 31
0.0
  0
LINE
  5
107BAD
  8
B-3W-JAW
  6
HIDDEN
 10
-17.82153588953798
 20
3.890856239240589
 30
0.0
 11
-17.90835997837144
 21
3.3984523627344831
 31
0.0
  0
LINE
  5
107BAE
  8
B-3W-JAW
  6
HIDDEN
 10
-17.592075683086129
 20
3.8503962138441898
 30
0.0
 11
-17.6788997719196
 21
3.3579923373380871
 31
0.0
  0
LINE
  5
107BAF
  8
B-3W-JAW
  6
HIDDEN
 10
-17.56794789313733
 20
3.8461418334913491
 30
0.0
 11
-17.6547719819708
 21
3.3537379569852468
 31
0.0
  0
LINE
  5
107BB0
  8
B-3W-JAW
  6
HIDDEN
 10
-17.560561834989748
 20
3.8448394721588541
 30
0.0
 11
-17.647385923823212
 21
3.3524355956527478
 31
0.0
  0
LINE
  5
107BB1
  8
B-3W-JAW
 10
-19.131983611489119
 20
3.6142102234856441
 30
0.0
 11
-16.09253754701205
 21
3.0782738759101749
 31
0.0
  0
LINE
  5
107BB2
  8
B-3W-JAW
 10
-19.045159522655648
 20
4.106614099991746
 30
0.0
 11
-16.57372805093862
 21
3.670834050556004
 31
0.0
  0
LINE
  5
107BB3
  8
B-3W-JAW
 10
-19.131983611489119
 20
3.6142102234856441
 30
0.0
 11
-19.045159522655648
 21
4.106614099991746
 31
0.0
  0
LINE
  5
107BB4
  8
B-3W-JAW
  6
HIDDEN
 10
-18.806343642550178
 20
4.0645044169075151
 30
0.0
 11
-18.893167731383649
 21
3.5721005404014128
 31
0.0
  0
LINE
  5
107BB5
  8
B-3W-JAW
  6
HIDDEN
 10
-18.774829794453801
 20
4.0589476752221687
 30
0.0
 11
-18.861653883287261
 21
3.566543798716066
 31
0.0
  0
LINE
  5
107BB6
  8
B-3W-JAW
  6
HIDDEN
 10
-18.798957584402601
 20
4.063202055575009
 30
0.0
 11
-18.88578167323606
 21
3.5707981790689072
 31
0.0
  0
ARC
  5
107BB7
  8
B-3W-JAW
 10
-16.508609984313519
 20
4.0401369579355846
 30
0.0
 40
0.375
 50
260.0
 51
320.00044552159699
  0
LINE
  5
107BB8
  8
B-3W-JAW
  6
HIDDEN
 10
-11.7628967191462
 20
3.8895538779080758
 30
0.0
 11
-11.67607263031273
 21
3.3971500014019691
 31
0.0
  0
LINE
  5
107BB9
  8
B-3W-JAW
  6
HIDDEN
 10
-11.787024509095
 20
3.8852994975552351
 30
0.0
 11
-11.700200420261529
 21
3.3928956210491288
 31
0.0
  0
LINE
  5
107BBA
  8
B-3W-JAW
  6
HIDDEN
 10
-11.75551066099861
 20
3.8908562392405819
 30
0.0
 11
-11.668686572165139
 21
3.398452362734476
 31
0.0
  0
LINE
  5
107BBB
  8
B-3W-JAW
  6
HIDDEN
 10
-11.98497086745045
 20
3.8503962138441832
 30
0.0
 11
-11.89814677861699
 21
3.357992337338076
 31
0.0
  0
LINE
  5
107BBC
  8
B-3W-JAW
  6
HIDDEN
 10
-12.00909865739925
 20
3.846141833491342
 30
0.0
 11
-11.922274568565779
 21
3.3537379569852361
 31
0.0
  0
LINE
  5
107BBD
  8
B-3W-JAW
  6
HIDDEN
 10
-12.01648471554684
 20
3.844839472158843
 30
0.0
 11
-11.92966062671338
 21
3.3524355956527412
 31
0.0
  0
LINE
  5
107BBE
  8
B-3W-JAW
  6
HIDDEN
 10
-11.031676962534631
 20
4.0184876498257696
 30
0.0
 11
-10.944852873701169
 21
3.5260837733196668
 31
0.0
  0
LINE
  5
107BBF
  8
B-3W-JAW
  6
HIDDEN
 10
-11.024290904387041
 20
4.0197900111582694
 30
0.0
 11
-10.937466815553581
 21
3.5273861346521631
 31
0.0
  0
LINE
  5
107BC0
  8
B-3W-JAW
  6
HIDDEN
 10
-11.000163114438241
 20
4.0240443915111088
 30
0.0
 11
-10.913339025604779
 21
3.531640515005003
 31
0.0
  0
LINE
  5
107BC1
  8
B-3W-JAW
 10
-13.48450900352454
 20
3.0782738759101651
 30
0.0
 11
-14.16846336315006
 21
3.8933918130532428
 31
0.0
  0
LINE
  5
107BC2
  8
B-3W-JAW
 10
-10.445062939047469
 20
3.614210223485633
 30
0.0
 11
-13.48450900352454
 21
3.0782738759101651
 31
0.0
  0
LINE
  5
107BC3
  8
B-3W-JAW
 10
-10.53188702788094
 20
4.1066140999917362
 30
0.0
 11
-13.00331849959797
 21
3.6708340505559969
 31
0.0
  0
ARC
  5
107BC4
  8
B-3W-JAW
 10
-13.953203470145951
 20
4.0740134575587081
 30
0.0
 40
0.281
 50
39.999554478403091
 51
219.99955447840301
  0
ARC
  5
107BC5
  8
B-3W-JAW
 10
-15.62384308039063
 20
4.0740134575587179
 30
0.0
 40
0.281
 50
320.00044552159699
 51
140.0004455215969
  0
CIRCLE
  5
107BC6
  8
B-3W-JAW
 10
-15.62384308039063
 20
4.0740134575587179
 30
0.0
 40
0.125
  0
LINE
  5
107BC7
  8
B-3W-JAW
 10
-13.35570510670898
 20
3.7990938380439419
 30
0.0
 11
-13.73794357714184
 21
4.2546351020641762
 31
0.0
  0
CIRCLE
  5
107BC8
  8
B-3W-JAW
 10
-13.953203470145951
 20
4.0740134575587081
 30
0.0
 40
0.125
  0
ARC
  5
107BC9
  8
B-3W-JAW
 10
-13.06843656622306
 20
4.0401369579355739
 30
0.0
 40
0.375
 50
219.9995544784029
 51
280.0
  0
LINE
  5
107BCA
  8
B-3W-JAW
 10
-10.445062939047469
 20
3.614210223485633
 30
0.0
 11
-10.53188702788094
 21
4.1066140999917362
 31
0.0
  0
LINE
  5
107BCB
  8
B-3W-JAW
  6
HIDDEN
 10
-10.770702907986401
 20
4.0645044169075053
 30
0.0
 11
-10.68387881915293
 21
3.5721005404014021
 31
0.0
  0
LINE
  5
107BCC
  8
B-3W-JAW
  6
HIDDEN
 10
-10.802216756082791
 20
4.0589476752221616
 30
0.0
 11
-10.715392667249329
 21
3.5665437987160562
 31
0.0
  0
LINE
  5
107BCD
  8
B-3W-JAW
  6
HIDDEN
 10
-10.778088966133989
 20
4.0632020555750019
 30
0.0
 11
-10.691264877300529
 21
3.5707981790688961
 31
0.0
  0
ENDBLK
  5
107BCF
  8
0
  0
BLOCK
  8
0
  2
CEN-MRK
 70
     0
 10
0.0
 20
0.0
 30
0.0
  3
CEN-MRK
  1

  0
LINE
  5
107BD1
  8
C
 10
0.0
 20
0.5
 30
0.0
 11
0.0
 21
-0.5000000000000001
 31
0.0
  0
LINE
  5
107BD2
  8
C
 10
0.5000000000000002
 20
0.0
 30
0.0
 11
-0.5
 21
0.0
 31
0.0
  0
ENDBLK
  5
107BD4
  8
0
  0
BLOCK
  8
0
  2
*U29
 70
     1
 10
0.0
 20
0.0
 30
0.0
  3
*U29
  1

  0
SOLID
  5
10826A
  8
BT-3W-BODY
  6
CONTINUOUS
 10
3.1242514677657178
 20
2.0927531569130262
 30
0.0
 11
2.8852689764891841
 21
2.0615031569130271
 31
0.0
 12
2.9889349984243991
 22
2.0615031569130271
 32
0.0
 13
2.9889349984243991
 23
2.0615031569130271
 33
0.0
210
0.0
220
0.0
230
1.0
  0
SOLID
  5
10826B
  8
BT-3W-BODY
  6
CONTINUOUS
 10
3.1242514677657178
 20
2.0927531569130262
 30
0.0
 11
2.9889349984243991
 21
2.0615031569130271
 31
0.0
 12
2.9889349984243991
 22
2.0146281569130249
 32
0.0
 13
2.9889349984243991
 23
2.0146281569130249
 33
0.0
210
0.0
220
0.0
230
1.0
  0
SOLID
  5
10826C
  8
BT-3W-BODY
  6
CONTINUOUS
 10
2.9889349984244009
 20
2.1240031569130271
 30
0.0
 11
2.8852689764891841
 21
2.0615031569130271
 31
0.0
 12
3.1242514677657178
 22
2.0927531569130262
 32
0.0
 13
3.1242514677657178
 23
2.0927531569130262
 33
0.0
210
0.0
220
0.0
230
1.0
  0
SOLID
  5
10826D
  8
BT-3W-BODY
  6
CONTINUOUS
 10
2.8852689764891841
 20
2.124003156913028
 30
0.0
 11
2.8852689764891841
 21
2.0615031569130271
 31
0.0
 12
2.9889349984244009
 22
2.1240031569130271
 32
0.0
 13
2.9889349984244009
 23
2.1240031569130271
 33
0.0
  0
SOLID
  5
10826E
  8
BT-3W-BODY
  6
CONTINUOUS
 10
2.9889349984243991
 20
2.1708781569130271
 30
0.0
 11
2.9889349984244009
 21
2.1240031569130271
 31
0.0
 12
3.1242514677657178
 22
2.0927531569130262
 32
0.0
 13
3.1242514677657178
 23
2.0927531569130262
 33
0.0
210
0.0
220
0.0
230
1.0
  0
ENDBLK
  5
108270
  8
0
  0
ENDSEC
  0
SECTION
  2
ENTITIES
  0
INSERT
  5
107C41
  8
C
  2
CEN-MRK
 10
14.391542661189099
 20
6.27180134441224
 30
0.0
 41
0.5
 42
0.5
 43
0.5
 50
90.0
  0
CIRCLE
  5
107C42
  8
HID
 10
14.391542661189099
 20
6.27180134441224
 30
0.0
 40
1.0609999999999991
  0
CIRCLE
  5
107C43
  8
BT-3W-BODY
 10
14.391542661189099
 20
6.27180134441224
 30
0.0
 40
1.0004999999999991
  0
LINE
  5
107C44
  8
BT-3W-BODY
 10
12.89154266118911
 20
4.7718013444122427
 30
0.0
 11
15.89154266118911
 21
4.7718013444122427
 31
0.0
  0
LINE
  5
107C45
  8
BT-3W-BODY
 10
12.89154266118911
 20
4.5218013444122427
 30
0.0
 11
15.89154266118911
 21
4.5218013444122427
 31
0.0
  0
LINE
  5
107C46
  8
BT-3W-BODY
 10
12.89154266118911
 20
7.7718013444122436
 30
0.0
 11
15.89154266118911
 21
7.7718013444122436
 31
0.0
  0
LINE
  5
107C47
  8
BT-3W-BODY
 10
12.89154266118911
 20
7.9968013294122411
 30
0.0
 11
15.89154266118911
 21
7.9968013294122411
 31
0.0
  0
LINE
  5
107C48
  8
BT-3W-BODY
 10
15.89154266118911
 20
4.5218013444122427
 30
0.0
 11
15.89154266118911
 21
7.7718013444122436
 31
0.0
  0
INSERT
  5
107C49
  8
C
  2
CEN-MRK
 10
15.516542661189099
 20
5.14680134441224
 30
0.0
 41
0.375
 42
0.375
 43
0.375
 50
90.0
  0
CIRCLE
  5
107C4A
  8
HID
 10
15.516542661189099
 20
5.14680134441224
 30
0.0
 40
0.156
  0
CIRCLE
  5
107C4B
  8
BT-3W-BODY
 10
15.516542661189099
 20
5.14680134441224
 30
0.0
 40
0.125
  0
INSERT
  5
107C4C
  8
C
  2
CEN-MRK
 10
15.516542661189099
 20
7.39680134441224
 30
0.0
 41
0.375
 42
0.375
 43
0.375
 50
90.0
  0
CIRCLE
  5
107C4D
  8
BT-3W-BODY
 10
15.516542661189099
 20
7.39680134441224
 30
0.0
 40
0.125
  0
LINE
  5
107C4E
  8
BT-3W-BODY
 10
15.89154266118911
 20
7.7718013444122436
 30
0.0
 11
15.89154266118911
 21
7.9968013294122411
 31
0.0
  0
LINE
  5
107C4F
  8
BT-3W-BODY
 10
12.89154266118911
 20
13.665816854113309
 30
0.0
 11
13.64154266118911
 21
13.665816854113309
 31
0.0
  0
LINE
  5
107C50
  8
BT-3W-BODY
 10
12.89154266118911
 20
11.915816854113309
 30
0.0
 11
15.89154266118911
 21
11.915816854113309
 31
0.0
  0
LINE
  5
107C51
  8
BT-3W-BODY
 10
12.89154266118911
 20
8.9882592243576962
 30
0.0
 11
15.89154266118911
 21
8.9882592243576962
 31
0.0
  0
LINE
  5
107C52
  8
BT-3W-BODY
 10
12.89154266118911
 20
8.9882592243576962
 30
0.0
 11
12.89154266118911
 21
13.665816854113309
 31
0.0
  0
INSERT
  5
107C53
  8
B-3W-JAW
  2
3W_OPEN
 10
22.611598983821871
 20
9.935061026310251
 30
0.0
  0
LINE
  5
107C54
  8
BT-3W-BODY
 10
9.5730757085535885
 20
13.6658168541133
 30
0.0
 11
9.5730757085535885
 21
11.91581685411332
 31
0.0
  0
LINE
  5
107C55
  8
BT-3W-BODY
 10
6.0730757085535938
 20
13.6658168541133
 30
0.0
 11
6.0730757085535938
 21
11.915816854113309
 31
0.0
  0
INSERT
  5
107C56
  8
B-3W-JAW
  2
3W_CLOSED
 10
29.916000935897419
 20
9.935061026310251
 30
0.0
  0
LINE
  5
107C57
  8
BT-3W-BODY
 10
12.89154266118911
 20
4.7718013444122427
 30
0.0
 11
12.89154266118911
 21
7.7718013444122436
 31
0.0
  0
LINE
  5
107C58
  8
BT-3W-BODY
 10
6.3230757085535938
 20
8.9882592243576962
 30
0.0
 11
9.3230757085535956
 21
8.9882592243576962
 31
0.0
  0
LINE
  5
107C59
  8
BT-3W-BODY
 10
6.3230757085535938
 20
11.915816854113309
 30
0.0
 11
6.3230757085535938
 21
8.9882592243576962
 31
0.0
  0
INSERT
  5
107C5A
  8
C
  2
CEN-MRK
 10
13.266542661189099
 20
5.14680134441224
 30
0.0
 41
0.375
 42
0.375
 43
0.375
 50
90.0
  0
LINE
  5
107C5B
  8
BT-3W-BODY
 10
12.89154266118911
 20
4.7718013444122427
 30
0.0
 11
12.89154266118911
 21
4.5218013444122427
 31
0.0
  0
CIRCLE
  5
107C5C
  8
BT-3W-BODY
 10
13.266542661189099
 20
5.14680134441224
 30
0.0
 40
0.125
  0
INSERT
  5
107C5D
  8
C
  2
CEN-MRK
 10
6.6980757085535982
 20
11.45581685411331
 30
0.0
 41
0.375
 42
0.375
 43
0.375
  0
CIRCLE
  5
107C5E
  8
BT-3W-BODY
 10
6.6980757085535982
 20
11.45581685411331
 30
0.0
 40
0.125
  0
CIRCLE
  5
107C5F
  8
PARTH
 10
6.6980757085535982
 20
11.45581685411331
 30
0.0
 40
0.156
  0
INSERT
  5
107C60
  8
C
  2
CEN-MRK
 10
6.6980757085535938
 20
9.9558168541133121
 30
0.0
 41
0.375
 42
0.375
 43
0.375
  0
CIRCLE
  5
107C61
  8
PARTH
 10
6.6980757085535938
 20
9.9558168541133121
 30
0.0
 40
0.156
  0
CIRCLE
  5
107C62
  8
BT-3W-BODY
 10
6.6980757085535938
 20
9.9558168541133121
 30
0.0
 40
0.125
  0
INSERT
  5
107C63
  8
C
  2
CEN-MRK
 10
6.6980757085535982
 20
10.70581685411331
 30
0.0
 41
0.375
 42
0.375
 43
0.375
  0
CIRCLE
  5
107C64
  8
BT-3W-BODY
 10
6.6980757085535982
 20
10.70581685411331
 30
0.0
 40
0.125
  0
LINE
  5
107C65
  8
BT-3W-BODY
 10
6.3230757085535938
 20
11.915816854113309
 30
0.0
 11
6.0730757085535938
 21
11.9158168541133
 31
0.0
  0
CIRCLE
  5
107C66
  8
BT-3W-BODY
 10
6.385075708553595
 20
13.2908168541133
 30
0.0
 40
0.156
  0
LINE
  5
107C67
  8
BT-3W-BODY
 10
9.3230757085535956
 20
11.9158168541133
 30
0.0
 11
9.3230757085535956
 21
8.9882592243576962
 31
0.0
  0
INSERT
  5
107C68
  8
C
  2
CEN-MRK
 10
13.26654266118911
 20
7.39680134441224
 30
0.0
 41
0.375
 42
0.375
 43
0.375
 50
90.0
  0
CIRCLE
  5
107C69
  8
HID
 10
13.26654266118911
 20
7.39680134441224
 30
0.0
 40
0.156
  0
CIRCLE
  5
107C6A
  8
BT-3W-BODY
 10
13.26654266118911
 20
7.39680134441224
 30
0.0
 40
0.125
  0
LINE
  5
107C6B
  8
BT-3W-BODY
 10
12.89154266118911
 20
7.7718013444122436
 30
0.0
 11
12.89154266118911
 21
7.9968013294122411
 31
0.0
  0
TEXT
  5
107C6C
  8
TEXT
 10
6.941721466103381
 20
6.2602356683224576
 30
0.0
 40
0.234
  1
BT-3W 
  7
ROMANS
  0
INSERT
  5
107C6D
  8
C
  2
CEN-MRK
 10
8.9480757085535991
 20
11.45581685411331
 30
0.0
 41
0.375
 42
0.375
 43
0.375
  0
CIRCLE
  5
107C6E
  8
BT-3W-BODY
 10
8.9480757085535991
 20
11.45581685411331
 30
0.0
 40
0.125
  0
CIRCLE
  5
107C6F
  8
PARTH
 10
8.9480757085535991
 20
11.45581685411331
 30
0.0
 40
0.156
  0
INSERT
  5
107C70
  8
C
  2
CEN-MRK
 10
8.9480757085535956
 20
9.9558168541133121
 30
0.0
 41
0.375
 42
0.375
 43
0.375
  0
INSERT
  5
107C71
  8
C
  2
CEN-MRK
 10
8.9480757085535991
 20
10.70581685411331
 30
0.0
 41
0.375
 42
0.375
 43
0.375
  0
CIRCLE
  5
107C72
  8
PARTH
 10
8.9480757085535956
 20
9.9558168541133121
 30
0.0
 40
0.156
  0
CIRCLE
  5
107C73
  8
BT-3W-BODY
 10
8.9480757085535956
 20
9.9558168541133121
 30
0.0
 40
0.125
  0
CIRCLE
  5
107C74
  8
BT-3W-BODY
 10
8.9480757085535991
 20
10.70581685411331
 30
0.0
 40
0.125
  0
LINE
  5
107C75
  8
BT-3W-BODY
 10
9.5730757085535885
 20
11.915816854113309
 30
0.0
 11
9.3230757085535956
 21
11.915816854113309
 31
0.0
  0
CIRCLE
  5
107C76
  8
BT-3W-BODY
 10
9.2610757085535944
 20
13.290816854113309
 30
0.0
 40
0.156
  0
LINE
  5
107C77
  8
B3-CLEVIS
 10
7.3875757085535749
 20
14.134616854113309
 30
0.0
 11
7.2391522305194291
 21
14.134616854113309
 31
0.0
  0
LINE
  5
107C78
  8
B3-CLEVIS
 10
7.2391945304082608
 20
13.88361685411331
 30
0.0
 11
7.3875757085535749
 21
13.88361685411331
 31
0.0
  0
LINE
  5
107C79
  8
B3-CLEVIS
 10
8.8230757085535814
 20
14.38361685411331
 30
0.0
 11
6.8230757085535796
 21
14.38361685411331
 31
0.0
  0
LINE
  5
107C7A
  8
BT-3W-BODY
 10
6.0730757085535938
 20
13.6658168541133
 30
0.0
 11
9.5730757085535885
 21
13.6658168541133
 31
0.0
  0
LINE
  5
107C7B
  8
B3-CLEVIS
 10
6.8230757085535796
 20
14.38361685411331
 30
0.0
 11
6.8230757085535796
 21
14.23676162319628
 31
0.0
  0
POLYLINE
  5
107C7C
  8
CI
 66
     1
 10
0.0
 20
0.0
 30
0.0
  0
VERTEX
  5
108260
  8
CI
 10
8.1510757085535843
 20
14.41461685411331
 30
0.0
 42
0.1681465202869418
  0
VERTEX
  5
108261
  8
CI
 10
7.9805157085535807
 20
14.58261685411331
 30
0.0
  0
VERTEX
  5
108262
  8
CI
 10
7.6656357085535793
 20
14.58261685411331
 30
0.0
 42
0.1681465202869418
  0
VERTEX
  5
108263
  8
CI
 10
7.4950757085535766
 20
14.41461685411331
 30
0.0
  0
VERTEX
  5
108264
  8
CI
 10
7.4950757085535766
 20
14.38361685411331
 30
0.0
  0
VERTEX
  5
108265
  8
CI
 10
8.1510757085535843
 20
14.38361685411331
 30
0.0
  0
VERTEX
  5
108266
  8
CI
 10
8.1510757085535843
 20
14.41461685411331
 30
0.0
  0
VERTEX
  5
108267
  8
CI
 10
7.4950757085535766
 20
14.41461685411331
 30
0.0
  0
SEQEND
  5
108268
  8
CI
  0
ARC
  5
107C7D
  8
B3-CLEVIS
 10
8.2585757085535771
 20
14.00911685411331
 30
0.0
 40
0.1255
 50
90.0
 51
270.0
  0
ARC
  5
107C7E
  8
B3-CLEVIS
 10
7.3875757085535749
 20
14.00911685411331
 30
0.0
 40
0.1255
 50
270.0
 51
90.0
  0
LINE
  5
107C7F
  8
B3-CLEVIS
 10
8.4069568866988842
 20
13.88361685411331
 30
0.0
 11
8.2585757085535771
 21
13.88361685411331
 31
0.0
  0
LINE
  5
107C80
  8
B3-CLEVIS
 10
8.2585757085535771
 20
14.134616854113309
 30
0.0
 11
8.4069991865877327
 21
14.134616854113309
 31
0.0
  0
LINE
  5
107C81
  8
B3-CLEVIS
 10
8.8230757085535814
 20
14.236761623196269
 30
0.0
 11
8.8230757085535814
 21
14.38361685411331
 31
0.0
  0
LINE
  5
107C82
  8
B-3W-JAW
 10
13.64526307182453
 20
16.19701685411329
 30
0.0
 11
13.64526307182453
 21
12.541016854113289
 31
0.0
  0
LINE
  5
107C83
  8
B-3W-JAW
 10
15.14026307182454
 20
16.19701685411329
 30
0.0
 11
15.14026307182454
 21
12.541016854113289
 31
0.0
  0
LINE
  5
107C84
  8
BT-3W-BODY
 10
15.89154266118911
 20
8.9882592243576962
 30
0.0
 11
15.89154266118911
 21
13.6658168541133
 31
0.0
  0
LINE
  5
107C85
  8
BT-3W-BODY
 10
13.64154266118911
 20
12.290816854113309
 30
0.0
 11
13.64154266118911
 21
13.665816854113309
 31
0.0
  0
LINE
  5
107C86
  8
BT-3W-BODY
 10
15.14154266118911
 20
12.290816854113309
 30
0.0
 11
15.14154266118911
 21
13.665816854113309
 31
0.0
  0
LINE
  5
107C87
  8
B-3W-JAW
 10
14.00226307182454
 20
13.68745956827987
 30
0.0
 11
14.00226307182454
 21
12.541016854113289
 31
0.0
  0
LINE
  5
107C88
  8
B-3W-JAW
 10
14.781263071824529
 20
13.68745956827987
 30
0.0
 11
14.781263071824529
 21
12.541016854113289
 31
0.0
  0
LINE
  5
107C89
  8
C
 10
15.26654266118911
 20
11.41081685411331
 30
0.0
 11
15.26654266118911
 21
11.59081685411331
 31
0.0
  0
CIRCLE
  5
107C8A
  8
CI
 10
15.266542661189121
 20
11.50081685411331
 30
0.0
 40
0.1685
  0
CIRCLE
  5
107C8B
  8
PARTH
 10
15.266542661189121
 20
11.50081685411331
 30
0.0
 40
0.2150844733253407
  0
CIRCLE
  5
107C8C
  8
CI
 10
15.26654266118911
 20
9.7412592243576945
 30
0.0
 40
0.1685
  0
CIRCLE
  5
107C8D
  8
PARTH
 10
15.26654266118911
 20
9.7412592243576945
 30
0.0
 40
0.2150844733253407
  0
LINE
  5
107C8E
  8
C
 10
15.17654266118911
 20
9.7412592243576963
 30
0.0
 11
15.35654266118911
 21
9.7412592243576963
 31
0.0
  0
CIRCLE
  5
107C8F
  8
CI
 10
15.26654266118911
 20
9.7412592243576945
 30
0.0
 40
0.046875
  0
LINE
  5
107C90
  8
C
 10
15.26654266118911
 20
9.6512592243576911
 30
0.0
 11
15.26654266118911
 21
9.8312592243576926
 31
0.0
  0
LINE
  5
107C91
  8
B-3W-JAW
 10
15.14026307182454
 20
12.541016854113289
 30
0.0
 11
14.781263071824529
 21
12.541016854113289
 31
0.0
  0
LINE
  5
107C92
  8
BT-3W-BODY
 10
13.64154266118911
 20
12.29081685411332
 30
0.0
 11
15.14154266118911
 21
12.29081685411332
 31
0.0
  0
LINE
  5
107C93
  8
B-3W-JAW
 10
14.781263071824529
 20
13.04701685411329
 30
0.0
 11
14.00226307182454
 21
13.04701685411329
 31
0.0
  0
LINE
  5
107C94
  8
B-3W-JAW
 10
14.00226307182454
 20
12.541016854113289
 30
0.0
 11
13.64526307182453
 21
12.541016854113289
 31
0.0
  0
LINE
  5
107C95
  8
C
 10
15.17654266118911
 20
11.50081685411331
 30
0.0
 11
15.35654266118911
 21
11.50081685411331
 31
0.0
  0
CIRCLE
  5
107C96
  8
CI
 10
15.266542661189121
 20
11.50081685411331
 30
0.0
 40
0.046875
  0
INSERT
  5
107C97
  8
C
  2
CEN-MRK
 10
14.770263071824539
 20
14.82201685411329
 30
0.0
 41
0.375
 42
0.375
 43
0.375
  0
LINE
  5
107C98
  8
B-3W-JAW
 10
14.00226307182454
 20
13.68745956827987
 30
0.0
 11
14.781263071824529
 21
13.68745956827987
 31
0.0
  0
INSERT
  5
107C99
  8
C
  2
CEN-MRK
 10
14.020263071824539
 20
14.82201685411329
 30
0.0
 41
0.375
 42
0.375
 43
0.375
  0
CIRCLE
  5
107C9A
  8
B-3W-JAW
 10
14.770263071824539
 20
14.82201685411329
 30
0.0
 40
0.1325
  0
CIRCLE
  5
107C9B
  8
B-3W-JAW
  6
HIDDEN
 10
14.020263071824539
 20
14.82201685411329
 30
0.0
 40
0.125
  0
CIRCLE
  5
107C9C
  8
B-3W-JAW
 10
14.020263071824539
 20
14.82201685411329
 30
0.0
 40
0.1005
  0
LINE
  5
107C9D
  8
BT-3W-BODY
 10
15.14154266118911
 20
13.665816854113309
 30
0.0
 11
15.89154266118911
 21
13.6658168541133
 31
0.0
  0
INSERT
  5
107C9E
  8
C
  2
CEN-MRK
 10
14.770263071824539
 20
15.82201685411329
 30
0.0
 41
0.375
 42
0.375
 43
0.375
  0
LINE
  5
107C9F
  8
B-3W-JAW
 10
15.14026307182454
 20
16.19701685411329
 30
0.0
 11
13.64526307182453
 21
16.19701685411329
 31
0.0
  0
INSERT
  5
107CA0
  8
C
  2
CEN-MRK
 10
14.020263071824539
 20
15.82201685411329
 30
0.0
 41
0.375
 42
0.375
 43
0.375
  0
CIRCLE
  5
107CA1
  8
B-3W-JAW
 10
14.770263071824539
 20
15.82201685411329
 30
0.0
 40
0.1005
  0
CIRCLE
  5
107CA2
  8
B-3W-JAW
  6
HIDDEN
 10
14.770263071824539
 20
15.82201685411329
 30
0.0
 40
0.125
  0
CIRCLE
  5
107CA3
  8
B-3W-JAW
 10
14.020263071824539
 20
15.82201685411329
 30
0.0
 40
0.1325
  0
LINE
  5
107D99
  8
C
 10
9.2610757085535944
 20
13.290816854113309
 30
0.0
 11
12.123124000357659
 21
13.795473188048931
 31
0.0
  0
ENDSEC
  0
EOF
