  0
SECTION
  2
HEADER
  9
$ACADVER
  1
AC1009
  9
$INSBASE
 10
0.0
 20
0.0
 30
0.0
  9
$EXTMIN
 10
-8.97346
 20
-3.254365
 30
0.0
  9
$EXTMAX
 10
17.189346
 20
16.354239
 30
0.0
  9
$LIMMIN
 10
0.0
 20
0.0
  9
$LIMMAX
 10
12.0
 20
9.0
  9
$ORTHOMODE
 70
     1
  9
$REGENMODE
 70
     1
  9
$FILLMODE
 70
     1
  9
$QTEXTMODE
 70
     0
  9
$MIRRTEXT
 70
     1
  9
$DRAGMODE
 70
     2
  9
$LTSCALE
 40
0.5
  9
$OSMODE
 70
    32
  9
$ATTMODE
 70
     1
  9
$TEXTSIZE
 40
0.2
  9
$TRACEWID
 40
0.05
  9
$TEXTSTYLE
  7
STANDARD
  9
$CLAYER
  8
0
  9
$CELTYPE
  6
BYLAYER
  9
$CECOLOR
 62
   256
  9
$DIMSCALE
 40
1.0
  9
$DIMASZ
 40
0.18
  9
$DIMEXO
 40
0.0625
  9
$DIMDLI
 40
0.38
  9
$DIMRND
 40
0.0
  9
$DIMDLE
 40
0.0
  9
$DIMEXE
 40
0.18
  9
$DIMTP
 40
0.0
  9
$DIMTM
 40
0.0
  9
$DIMTXT
 40
0.18
  9
$DIMCEN
 40
0.09
  9
$DIMTSZ
 40
0.0
  9
$DIMTOL
 70
     0
  9
$DIMLIM
 70
     0
  9
$DIMTIH
 70
     1
  9
$DIMTOH
 70
     1
  9
$DIMSE1
 70
     0
  9
$DIMSE2
 70
     0
  9
$DIMTAD
 70
     0
  9
$DIMZIN
 70
     0
  9
$DIMBLK
  1

  9
$DIMASO
 70
     1
  9
$DIMSHO
 70
     1
  9
$DIMPOST
  1

  9
$DIMAPOST
  1

  9
$DIMALT
 70
     0
  9
$DIMALTD
 70
     2
  9
$DIMALTF
 40
25.4
  9
$DIMLFAC
 40
1.0
  9
$DIMTOFL
 70
     0
  9
$DIMTVP
 40
0.0
  9
$DIMTIX
 70
     0
  9
$DIMSOXD
 70
     0
  9
$DIMSAH
 70
     0
  9
$DIMBLK1
  1

  9
$DIMBLK2
  1

  9
$DIMSTYLE
  2
*UNNAMED
  9
$DIMCLRD
 70
     0
  9
$DIMCLRE
 70
     0
  9
$DIMCLRT
 70
     0
  9
$DIMTFAC
 40
1.0
  9
$DIMGAP
 40
0.09
  9
$LUNITS
 70
     2
  9
$LUPREC
 70
     4
  9
$SKETCHINC
 40
0.1
  9
$FILLETRAD
 40
0.0
  9
$AUNITS
 70
     0
  9
$AUPREC
 70
     0
  9
$MENU
  1
acad
  9
$ELEVATION
 40
0.0
  9
$PELEVATION
 40
0.0
  9
$THICKNESS
 40
0.0
  9
$LIMCHECK
 70
     0
  9
$BLIPMODE
 70
     0
  9
$CHAMFERA
 40
0.0
  9
$CHAMFERB
 40
0.0
  9
$SKPOLY
 70
     0
  9
$TDCREATE
 40
2450403.472271412
  9
$TDUPDATE
 40
2450403.474971296
  9
$TDINDWG
 40
0.0003807870
  9
$TDUSRTIMER
 40
0.0003807870
  9
$USRTIMER
 70
     1
  9
$ANGBASE
 50
0.0
  9
$ANGDIR
 70
     0
  9
$PDMODE
 70
     0
  9
$PDSIZE
 40
0.0
  9
$PLINEWID
 40
0.0
  9
$COORDS
 70
     0
  9
$SPLFRAME
 70
     0
  9
$SPLINETYPE
 70
     6
  9
$SPLINESEGS
 70
     8
  9
$ATTDIA
 70
     0
  9
$ATTREQ
 70
     1
  9
$HANDLING
 70
     0
  9
$HANDSEED
  5
0
  9
$SURFTAB1
 70
     6
  9
$SURFTAB2
 70
     6
  9
$SURFTYPE
 70
     6
  9
$SURFU
 70
     6
  9
$SURFV
 70
     6
  9
$UCSNAME
  2

  9
$UCSORG
 10
0.0
 20
0.0
 30
0.0
  9
$UCSXDIR
 10
1.0
 20
0.0
 30
0.0
  9
$UCSYDIR
 10
0.0
 20
1.0
 30
0.0
  9
$PUCSNAME
  2

  9
$PUCSORG
 10
0.0
 20
0.0
 30
0.0
  9
$PUCSXDIR
 10
1.0
 20
0.0
 30
0.0
  9
$PUCSYDIR
 10
0.0
 20
1.0
 30
0.0
  9
$USERI1
 70
     0
  9
$USERI2
 70
     0
  9
$USERI3
 70
     0
  9
$USERI4
 70
     0
  9
$USERI5
 70
     0
  9
$USERR1
 40
0.0
  9
$USERR2
 40
0.0
  9
$USERR3
 40
0.0
  9
$USERR4
 40
0.0
  9
$USERR5
 40
0.0
  9
$WORLDVIEW
 70
     1
  9
$SHADEDGE
 70
     3
  9
$SHADEDIF
 70
    70
  9
$TILEMODE
 70
     1
  9
$MAXACTVP
 70
    16
  9
$PINSBASE
 10
-3.369212
 20
50.0
 30
0.845018
  9
$PLIMCHECK
 70
     0
  9
$PEXTMIN
 10
1.000000E+20
 20
1.000000E+20
 30
1.000000E+20
  9
$PEXTMAX
 10
-1.000000E+20
 20
-1.000000E+20
 30
-1.000000E+20
  9
$PLIMMIN
 10
0.0
 20
0.0
  9
$PLIMMAX
 10
12.0
 20
9.0
  9
$UNITMODE
 70
     0
  9
$VISRETAIN
 70
     0
  9
$PLINEGEN
 70
     0
  9
$PSLTSCALE
 70
     0
  9
$TREEDEPTH
 70
  3020
  9
$DWGCODEPAGE
  3
undefined
  0
ENDSEC
  0
SECTION
  2
TABLES
  0
TABLE
  2
VPORT
 70
     2
  0
VPORT
  2
*ACTIVE
 70
     0
 10
0.0
 20
0.0
 11
1.0
 21
1.0
 12
-1.608186
 22
1.000923
 13
0.0
 23
0.0
 14
1.0
 24
1.0
 15
0.0
 25
0.0
 16
0.0
 26
0.0
 36
1.0
 17
0.0
 27
0.0
 37
0.0
 40
10.114935
 41
1.382567
 42
50.0
 43
0.0
 44
0.0
 50
0.0
 51
0.0
 71
     0
 72
   100
 73
     1
 74
     0
 75
     0
 76
     0
 77
     0
 78
     0
  0
ENDTAB
  0
TABLE
  2
LTYPE
 70
     3
  0
LTYPE
  2
CONTINUOUS
 70
    64
  3
Solid line
 72
    65
 73
     0
 40
0.0
  0
LTYPE
  2
CENTER
 70
    64
  3
____ _ ____ _ ____ _ ____ _ ____ _ ____ _ ____ 
 72
    65
 73
     4
 40
2.0
 49
1.25
 49
-0.25
 49
0.25
 49
-0.25
  0
LTYPE
  2
HIDDEN
 70
    64
  3
__ __ __ __ __ __ __ __ __ __ __ __ __ __ __ __
 72
    65
 73
     2
 40
0.375
 49
0.25
 49
-0.125
  0
ENDTAB
  0
TABLE
  2
LAYER
 70
     7
  0
LAYER
  2
0
 70
     0
 62
     7
  6
CONTINUOUS
  0
LAYER
  2
HID
 70
    64
 62
    14
  6
HIDDEN
  0
LAYER
  2
CENTER
 70
    64
 62
     2
  6
CENTER
  0
LAYER
  2
OBJ
 70
    64
 62
     5
  6
CONTINUOUS
  0
LAYER
  2
SHAFT
 70
    64
 62
     1
  6
CONTINUOUS
  0
LAYER
  2
DIM
 70
    64
 62
    12
  6
CONTINUOUS
  0
LAYER
  2
CI
 70
    64
 62
     8
  6
CONTINUOUS
  0
ENDTAB
  0
TABLE
  2
STYLE
 70
     1
  0
STYLE
  2
STANDARD
 70
    64
 40
0.0
 41
1.0
 50
0.0
 71
     0
 42
0.2
  3
txt
  4

  0
ENDTAB
  0
TABLE
  2
VIEW
 70
     0
  0
ENDTAB
  0
TABLE
  2
UCS
 70
     0
  0
ENDTAB
  0
TABLE
  2
APPID
 70
     1
  0
APPID
  2
ACAD
 70
    64
  0
ENDTAB
  0
TABLE
  2
DIMSTYLE
 70
     0
  0
ENDTAB
  0
ENDSEC
  0
SECTION
  2
BLOCKS
  0
ENDSEC
  0
SECTION
  2
ENTITIES
  0
LINE
  8
CENTER
 10
-1.551054
 20
2.660573
 30
0.0
 11
-1.371054
 21
2.660573
 31
0.0
  0
CIRCLE
  8
CI
 10
-1.461054
 20
2.660573
 30
0.0
 40
0.085
  0
LINE
  8
CENTER
 10
-1.551054
 20
1.785573
 30
0.0
 11
-1.371054
 21
1.785573
 31
0.0
  0
LINE
  8
OBJ
 10
-1.836054
 20
0.473073
 30
0.0
 11
-1.336054
 21
0.473073
 31
0.0
  0
CIRCLE
  8
CI
 10
-1.461054
 20
1.785573
 30
0.0
 40
0.085
  0
LINE
  8
OBJ
 10
-1.836054
 20
-0.683373
 30
0.0
 11
0.163946
 21
-0.683373
 31
0.0
  0
LINE
  8
OBJ
 10
0.163946
 20
3.473073
 30
0.0
 11
-1.836054
 21
3.473073
 31
0.0
  0
TEXT
  8
DIM
 10
-1.88199
 20
-3.214841
 30
0.0
 40
0.139234
  1
9/16" BORE
  0
LINE
  8
OBJ
 10
-1.836054
 20
-1.683373
 30
0.0
 11
0.163946
 21
-1.683373
 31
0.0
  0
TEXT
  8
DIM
 10
-4.704571
 20
-2.912864
 30
0.0
 40
0.321309
  1
LA-1-3  LINEAR ACTUATOR
  0
LINE
  8
CENTER
 10
-6.076922
 20
2.223073
 30
0.0
 11
4.965489
 21
2.223073
 31
0.0
  0
LINE
  8
CENTER
 10
-6.076922
 20
-1.183373
 30
0.0
 11
4.965489
 21
-1.183373
 31
0.0
  0
ARC
  8
CI
 10
-1.937721
 20
-1.140873
 30
0.0
 40
0.02
 50
90.0
 51
180.0
  0
LINE
  8
OBJ
 10
-1.836054
 20
-0.683373
 30
0.0
 11
-1.836054
 21
-1.683373
 31
0.0
  0
LINE
  8
CI
 10
-1.877721
 20
-1.052323
 30
0.0
 11
-1.877721
 21
-1.314423
 31
0.0
  0
POLYLINE
  8
CI
 66
     1
 10
0.0
 20
0.0
 30
0.0
  0
VERTEX
  8
CI
 10
-1.836054
 20
-1.027123
 30
0.0
  0
VERTEX
  8
CI
 10
-1.836054
 20
-1.339623
 30
0.0
  0
SEQEND
  8
CI
  0
LINE
  8
OBJ
 10
-4.896054
 20
-0.652373
 30
0.0
 11
-4.896054
 21
-1.652373
 31
0.0
  0
LINE
  8
OBJ
 10
-5.646054
 20
-0.652373
 30
0.0
 11
-5.646054
 21
-1.652373
 31
0.0
  0
LINE
  8
CI
 10
-4.836054
 20
-1.277173
 30
0.0
 11
-4.836054
 21
-1.089573
 31
0.0
  0
LINE
  8
OBJ
 10
-5.646054
 20
-1.652373
 30
0.0
 11
-4.896054
 21
-1.652373
 31
0.0
  0
LINE
  8
SHAFT
 10
-4.896054
 20
-1.370873
 30
0.0
 11
-1.836054
 21
-1.370873
 31
0.0
  0
LINE
  8
CI
 10
-4.896054
 20
-1.277173
 30
0.0
 11
-4.836054
 21
-1.277173
 31
0.0
  0
LINE
  8
CI
 10
-1.852521
 20
-1.339623
 30
0.0
 11
-1.836054
 21
-1.339623
 31
0.0
  0
LINE
  8
CI
 10
-1.877721
 20
-1.314423
 30
0.0
 11
-1.852521
 21
-1.339623
 31
0.0
  0
LINE
  8
CI
 10
-1.937721
 20
-1.245873
 30
0.0
 11
-1.877721
 21
-1.245873
 31
0.0
  0
LINE
  8
CI
 10
-1.957721
 20
-1.140873
 30
0.0
 11
-1.957721
 21
-1.225873
 31
0.0
  0
ARC
  8
CI
 10
-1.937721
 20
-1.225873
 30
0.0
 40
0.02
 50
180.0
 51
270.0
  0
LINE
  8
CENTER
 10
-5.338554
 20
3.098073
 30
0.0
 11
-5.203554
 21
3.098073
 31
0.0
  0
CIRCLE
  8
CI
 10
-5.271054
 20
3.098073
 30
0.0
 40
0.08
  0
CIRCLE
  8
HID
 10
-5.271054
 20
3.098073
 30
0.0
 40
0.095
  0
LINE
  8
OBJ
 10
-4.896054
 20
3.473073
 30
0.0
 11
-5.646054
 21
3.473073
 31
0.0
  0
LINE
  8
CENTER
 10
-5.338554
 20
1.348073
 30
0.0
 11
-5.203554
 21
1.348073
 31
0.0
  0
CIRCLE
  8
CI
 10
-5.271054
 20
1.348073
 30
0.0
 40
0.08
  0
CIRCLE
  8
HID
 10
-5.271054
 20
1.348073
 30
0.0
 40
0.095
  0
LINE
  8
OBJ
 10
-5.646054
 20
-0.652373
 30
0.0
 11
-4.896054
 21
-0.652373
 31
0.0
  0
LINE
  8
OBJ
 10
-4.896054
 20
0.473073
 30
0.0
 11
-5.646054
 21
0.473073
 31
0.0
  0
LINE
  8
OBJ
 10
-5.646054
 20
1.843073
 30
0.0
 11
-5.646054
 21
0.473073
 31
0.0
  0
LINE
  8
HID
 10
-6.866207
 20
3.473073
 30
0.0
 11
-6.866207
 21
0.473073
 31
0.0
  0
LINE
  8
OBJ
 10
-6.835207
 20
3.473073
 30
0.0
 11
-6.835207
 21
0.473073
 31
0.0
  0
LINE
  8
CENTER
 10
-7.366207
 20
1.655573
 30
0.0
 11
-7.366207
 21
1.790573
 31
0.0
  0
LINE
  8
CENTER
 10
-7.647707
 20
1.655573
 30
0.0
 11
-7.647707
 21
1.790573
 31
0.0
  0
CIRCLE
  8
CI
 10
-7.647707
 20
1.723073
 30
0.0
 40
0.0625
  0
LINE
  8
OBJ
 10
-7.835207
 20
3.473073
 30
0.0
 11
-7.835207
 21
0.473073
 31
0.0
  0
LINE
  8
OBJ
 10
-7.866207
 20
0.473073
 30
0.0
 11
-7.866207
 21
3.473073
 31
0.0
  0
CIRCLE
  8
CI
 10
-7.366207
 20
1.723073
 30
0.0
 40
0.08
  0
CIRCLE
  8
HID
 10
-7.366207
 20
1.723073
 30
0.0
 40
0.095
  0
LINE
  8
OBJ
 10
-7.835207
 20
0.473073
 30
0.0
 11
-6.835207
 21
0.473073
 31
0.0
  0
LINE
  8
OBJ
 10
-7.866207
 20
0.473073
 30
0.0
 11
-6.866207
 21
0.473073
 31
0.0
  0
LINE
  8
CENTER
 10
-7.366207
 20
1.233698
 30
0.0
 11
-7.366207
 21
0.777448
 31
0.0
  0
LINE
  8
CENTER
 10
-7.366207
 20
0.595573
 30
0.0
 11
-7.366207
 21
0.730573
 31
0.0
  0
CIRCLE
  8
HID
 10
-7.366207
 20
0.663073
 30
0.0
 40
0.09375
  0
LINE
  8
CENTER
 10
-7.366207
 20
0.548698
 30
0.0
 11
-7.366207
 21
0.361389
 31
0.0
  0
LINE
  8
CENTER
 10
-7.433707
 20
0.663073
 30
0.0
 11
-7.298707
 21
0.663073
 31
0.0
  0
LINE
  8
CENTER
 10
-7.366207
 20
1.280573
 30
0.0
 11
-7.366207
 21
1.415573
 31
0.0
  0
CIRCLE
  8
OBJ
 10
-7.366207
 20
1.348073
 30
0.0
 40
0.1875
  0
CIRCLE
  8
CI
 10
-7.366207
 20
1.348073
 30
0.0
 40
0.153916
  0
LINE
  8
CENTER
 10
-7.433707
 20
1.348073
 30
0.0
 11
-7.298707
 21
1.348073
 31
0.0
  0
LINE
  8
CENTER
 10
-7.366207
 20
1.608698
 30
0.0
 11
-7.366207
 21
1.462448
 31
0.0
  0
LINE
  8
CENTER
 10
-5.271054
 20
1.280573
 30
0.0
 11
-5.271054
 21
1.415573
 31
0.0
  0
CIRCLE
  8
SHAFT
 10
-7.054207
 20
2.020073
 30
0.0
 40
0.15
  0
CIRCLE
  8
CI
 10
-7.054207
 20
2.020073
 30
0.0
 40
0.125
  0
LINE
  8
SHAFT
 10
-6.835207
 20
2.598073
 30
0.0
 11
-7.829207
 21
2.598073
 31
0.0
  0
LINE
  8
OBJ
 10
-6.835207
 20
2.603073
 30
0.0
 11
-7.835207
 21
2.603073
 31
0.0
  0
LINE
  8
SHAFT
 10
-6.835207
 20
1.848073
 30
0.0
 11
-7.829207
 21
1.848073
 31
0.0
  0
LINE
  8
OBJ
 10
-6.835207
 20
1.843073
 30
0.0
 11
-7.835207
 21
1.843073
 31
0.0
  0
LINE
  8
OBJ
 10
-7.835207
 20
3.473073
 30
0.0
 11
-6.835207
 21
3.473073
 31
0.0
  0
LINE
  8
OBJ
 10
-7.866207
 20
3.473073
 30
0.0
 11
-6.866207
 21
3.473073
 31
0.0
  0
LINE
  8
CENTER
 10
-7.366207
 20
3.030573
 30
0.0
 11
-7.366207
 21
3.165573
 31
0.0
  0
CIRCLE
  8
OBJ
 10
-7.366207
 20
3.098073
 30
0.0
 40
0.1875
  0
CIRCLE
  8
CI
 10
-7.366207
 20
3.098073
 30
0.0
 40
0.153916
  0
LINE
  8
CENTER
 10
-7.366207
 20
2.337448
 30
0.0
 11
-7.366207
 21
2.608698
 31
0.0
  0
CIRCLE
  8
SHAFT
 10
-7.678207
 20
2.426073
 30
0.0
 40
0.15
  0
POLYLINE
  8
CI
 66
     1
 10
0.0
 20
0.0
 30
0.0
 70
     1
  0
VERTEX
  8
CI
 10
-7.635707
 20
2.426073
 30
0.0
  0
VERTEX
  8
CI
 10
-7.656957
 20
2.462879
 30
0.0
  0
VERTEX
  8
CI
 10
-7.699457
 20
2.462879
 30
0.0
  0
VERTEX
  8
CI
 10
-7.720707
 20
2.426073
 30
0.0
  0
VERTEX
  8
CI
 10
-7.699457
 20
2.389267
 30
0.0
  0
VERTEX
  8
CI
 10
-7.656957
 20
2.389267
 30
0.0
  0
SEQEND
  8
CI
  0
CIRCLE
  8
CI
 10
-7.678207
 20
2.426073
 30
0.0
 40
0.125
  0
LINE
  8
SHAFT
 10
-7.829207
 20
2.598073
 30
0.0
 11
-7.829207
 21
1.848073
 31
0.0
  0
LINE
  8
CENTER
 10
-7.715207
 20
1.723073
 30
0.0
 11
-7.580207
 21
1.723073
 31
0.0
  0
LINE
  8
CENTER
 10
-7.366207
 20
2.108698
 30
0.0
 11
-7.366207
 21
1.921389
 31
0.0
  0
LINE
  8
CENTER
 10
-7.366207
 20
2.108698
 30
0.0
 11
-7.366207
 21
1.837448
 31
0.0
  0
LINE
  8
CENTER
 10
-7.433707
 20
1.723073
 30
0.0
 11
-7.298707
 21
1.723073
 31
0.0
  0
CIRCLE
  8
SHAFT
 10
-7.366207
 20
2.223073
 30
0.0
 40
0.16
  0
POLYLINE
  8
CI
 66
     1
 10
0.0
 20
0.0
 30
0.0
 70
     1
  0
VERTEX
  8
CI
 10
-7.456207
 20
2.223073
 30
0.0
  0
VERTEX
  8
CI
 10
-7.411207
 20
2.145131
 30
0.0
  0
VERTEX
  8
CI
 10
-7.321207
 20
2.145131
 30
0.0
  0
VERTEX
  8
CI
 10
-7.276207
 20
2.223073
 30
0.0
  0
VERTEX
  8
CI
 10
-7.321207
 20
2.301015
 30
0.0
  0
VERTEX
  8
CI
 10
-7.411207
 20
2.301015
 30
0.0
  0
SEQEND
  8
CI
  0
CIRCLE
  8
CI
 10
-7.366207
 20
2.223073
 30
0.0
 40
0.124173
  0
LINE
  8
CENTER
 10
-7.433707
 20
2.223073
 30
0.0
 11
-7.298707
 21
2.223073
 31
0.0
  0
LINE
  8
CENTER
 10
-7.366207
 20
2.155573
 30
0.0
 11
-7.366207
 21
2.290573
 31
0.0
  0
LINE
  8
CENTER
 10
-7.366207
 20
2.655573
 30
0.0
 11
-7.366207
 21
2.790573
 31
0.0
  0
CIRCLE
  8
CI
 10
-7.366207
 20
2.723073
 30
0.0
 40
0.08
  0
CIRCLE
  8
HID
 10
-7.366207
 20
2.723073
 30
0.0
 40
0.095
  0
LINE
  8
CENTER
 10
-7.433707
 20
2.723073
 30
0.0
 11
-7.298707
 21
2.723073
 31
0.0
  0
LINE
  8
CENTER
 10
-7.366207
 20
2.837448
 30
0.0
 11
-7.366207
 21
2.983698
 31
0.0
  0
LINE
  8
CENTER
 10
-7.366207
 20
3.540601
 30
0.0
 11
-7.366207
 21
3.212448
 31
0.0
  0
LINE
  8
CENTER
 10
-7.433707
 20
3.098073
 30
0.0
 11
-7.298707
 21
3.098073
 31
0.0
  0
LINE
  8
CENTER
 10
-5.271054
 20
3.030573
 30
0.0
 11
-5.271054
 21
3.165573
 31
0.0
  0
LINE
  8
OBJ
 10
-5.646054
 20
3.473073
 30
0.0
 11
-5.646054
 21
2.603073
 31
0.0
  0
LINE
  8
SHAFT
 10
-6.835207
 20
2.598073
 30
0.0
 11
-6.835207
 21
1.848073
 31
0.0
  0
POLYLINE
  8
CI
 66
     1
 10
0.0
 20
0.0
 30
0.0
 70
     1
  0
VERTEX
  8
CI
 10
-7.011707
 20
2.020073
 30
0.0
  0
VERTEX
  8
CI
 10
-7.032957
 20
2.056879
 30
0.0
  0
VERTEX
  8
CI
 10
-7.075457
 20
2.056879
 30
0.0
  0
VERTEX
  8
CI
 10
-7.096707
 20
2.020073
 30
0.0
  0
VERTEX
  8
CI
 10
-7.075457
 20
1.983267
 30
0.0
  0
VERTEX
  8
CI
 10
-7.032957
 20
1.983267
 30
0.0
  0
SEQEND
  8
CI
  0
CIRCLE
  8
CI
 10
-7.022707
 20
2.723073
 30
0.0
 40
0.0625
  0
LINE
  8
CENTER
 10
-7.022707
 20
2.655573
 30
0.0
 11
-7.022707
 21
2.790573
 31
0.0
  0
LINE
  8
CENTER
 10
-7.090207
 20
2.723073
 30
0.0
 11
-6.955207
 21
2.723073
 31
0.0
  0
LINE
  8
OBJ
 10
-5.396054
 20
2.603073
 30
0.0
 11
-5.396054
 21
1.843073
 31
0.0
  0
POLYLINE
  8
SHAFT
 66
     1
 10
0.0
 20
0.0
 30
0.0
 70
     1
  0
VERTEX
  8
SHAFT
 10
-5.583054
 20
1.843073
 30
0.0
  0
VERTEX
  8
SHAFT
 10
-5.583054
 20
2.603073
 30
0.0
  0
VERTEX
  8
SHAFT
 10
-5.396054
 20
2.603073
 30
0.0
  0
VERTEX
  8
SHAFT
 10
-5.396054
 20
1.843073
 30
0.0
  0
SEQEND
  8
SHAFT
  0
LINE
  8
OBJ
 10
-5.396054
 20
1.843073
 30
0.0
 11
-5.646054
 21
1.843073
 31
0.0
  0
LINE
  8
OBJ
 10
-5.396054
 20
2.603073
 30
0.0
 11
-5.646054
 21
2.603073
 31
0.0
  0
LINE
  8
OBJ
 10
-1.836054
 20
3.473073
 30
0.0
 11
-1.836054
 21
0.473073
 31
0.0
  0
LINE
  8
OBJ
 10
-4.896054
 20
3.473073
 30
0.0
 11
-4.896054
 21
0.473073
 31
0.0
  0
LINE
  8
SHAFT
 10
-4.896054
 20
1.160573
 30
0.0
 11
-1.836054
 21
1.160573
 31
0.0
  0
LINE
  8
SHAFT
 10
-4.896054
 20
1.535573
 30
0.0
 11
-1.836054
 21
1.535573
 31
0.0
  0
LINE
  8
SHAFT
 10
-4.896054
 20
-0.995873
 30
0.0
 11
-1.836054
 21
-0.995873
 31
0.0
  0
LINE
  8
CI
 10
-4.896054
 20
-1.089573
 30
0.0
 11
-4.836054
 21
-1.089573
 31
0.0
  0
LINE
  8
CI
 10
-4.836054
 20
0.569273
 30
0.0
 11
-4.836054
 21
0.756873
 31
0.0
  0
LINE
  8
CI
 10
-4.896054
 20
0.569273
 30
0.0
 11
-4.836054
 21
0.569273
 31
0.0
  0
LINE
  8
CI
 10
-4.896054
 20
0.756873
 30
0.0
 11
-4.836054
 21
0.756873
 31
0.0
  0
LINE
  8
CI
 10
-1.852521
 20
-1.027123
 30
0.0
 11
-1.836054
 21
-1.027123
 31
0.0
  0
LINE
  8
CI
 10
-1.852521
 20
-1.027123
 30
0.0
 11
-1.877721
 21
-1.052323
 31
0.0
  0
LINE
  8
CI
 10
-1.937721
 20
-1.120873
 30
0.0
 11
-1.877721
 21
-1.120873
 31
0.0
  0
LINE
  8
CI
 10
-1.877721
 20
0.794123
 30
0.0
 11
-1.877721
 21
0.532023
 31
0.0
  0
POLYLINE
  8
CI
 66
     1
 10
0.0
 20
0.0
 30
0.0
  0
VERTEX
  8
CI
 10
-1.836054
 20
0.819323
 30
0.0
  0
VERTEX
  8
CI
 10
-1.836054
 20
0.506823
 30
0.0
  0
SEQEND
  8
CI
  0
LINE
  8
CI
 10
-1.957721
 20
0.705573
 30
0.0
 11
-1.957721
 21
0.620573
 31
0.0
  0
LINE
  8
CI
 10
-1.852521
 20
0.506823
 30
0.0
 11
-1.836054
 21
0.506823
 31
0.0
  0
LINE
  8
CI
 10
-1.937721
 20
0.600573
 30
0.0
 11
-1.877721
 21
0.600573
 31
0.0
  0
LINE
  8
CI
 10
-1.877721
 20
0.532023
 30
0.0
 11
-1.852521
 21
0.506823
 31
0.0
  0
ARC
  8
CI
 10
-1.937721
 20
0.620573
 30
0.0
 40
0.02
 50
180.0
 51
270.0
  0
LINE
  8
CI
 10
-1.852521
 20
0.819323
 30
0.0
 11
-1.877721
 21
0.794123
 31
0.0
  0
LINE
  8
CI
 10
-1.937721
 20
0.725573
 30
0.0
 11
-1.877721
 21
0.725573
 31
0.0
  0
ARC
  8
CI
 10
-1.937721
 20
0.705573
 30
0.0
 40
0.02
 50
90.0
 51
180.0
  0
LINE
  8
CI
 10
-1.852521
 20
0.819323
 30
0.0
 11
-1.836054
 21
0.819323
 31
0.0
  0
LINE
  8
SHAFT
 10
-4.896054
 20
2.910573
 30
0.0
 11
-1.836054
 21
2.910573
 31
0.0
  0
LINE
  8
SHAFT
 10
-4.896054
 20
3.285573
 30
0.0
 11
-1.836054
 21
3.285573
 31
0.0
  0
LINE
  8
SHAFT
 10
-4.896054
 20
2.348073
 30
0.0
 11
-1.836054
 21
2.348073
 31
0.0
  0
LINE
  8
SHAFT
 10
-4.896054
 20
2.098073
 30
0.0
 11
-1.836054
 21
2.098073
 31
0.0
  0
LINE
  8
SHAFT
 10
4.603946
 20
-0.902173
 30
0.0
 11
4.603946
 21
-1.464573
 31
0.0
  0
LINE
  8
CI
 10
4.853946
 20
-0.995873
 30
0.0
 11
4.853946
 21
-1.370873
 31
0.0
  0
LINE
  8
CI
 10
4.728946
 20
-0.995873
 30
0.0
 11
4.728946
 21
-1.370873
 31
0.0
  0
ARC
  8
CI
 10
0.162279
 20
-1.140873
 30
0.0
 40
0.02
 50
0.0
 51
90.0
  0
ARC
  8
CI
 10
-0.038653
 20
-1.183373
 30
0.0
 40
0.160932
 50
331.130789
 51
28.869211
  0
ARC
  8
CI
 10
-1.456015
 20
-1.183373
 30
0.0
 40
0.229961
 50
335.927314
 51
24.072686
  0
ARC
  8
CI
 10
-1.106093
 20
-1.183373
 30
0.0
 40
0.229961
 50
155.927314
 51
204.072686
  0
LINE
  8
OBJ
 10
0.973946
 20
-1.652373
 30
0.0
 11
0.973946
 21
-0.652373
 31
0.0
  0
LINE
  8
OBJ
 10
0.223946
 20
-0.652373
 30
0.0
 11
0.223946
 21
-1.652373
 31
0.0
  0
LINE
  8
CI
 10
-0.190221
 20
-1.011873
 30
0.0
 11
-0.190221
 21
-1.354873
 31
0.0
  0
LINE
  8
CI
 10
0.122279
 20
-1.058773
 30
0.0
 11
0.122279
 21
-1.307973
 31
0.0
  0
LINE
  8
CI
 10
-0.127721
 20
-1.011873
 30
0.0
 11
-0.127721
 21
-1.354873
 31
0.0
  0
LINE
  8
CI
 10
-0.158971
 20
-1.027173
 30
0.0
 11
-0.158971
 21
-1.339573
 31
0.0
  0
LINE
  8
CI
 10
-0.065221
 20
-1.011873
 30
0.0
 11
-0.065221
 21
-1.354873
 31
0.0
  0
LINE
  8
CI
 10
-1.226054
 20
-1.339723
 30
0.0
 11
-1.226054
 21
-1.027023
 31
0.0
  0
POLYLINE
  8
CI
 66
     1
 10
0.0
 20
0.0
 30
0.0
 40
0.00375
 41
0.00375
  0
VERTEX
  8
CI
 10
-0.423971
 20
-1.084986
 30
0.0
  0
VERTEX
  8
CI
 10
-0.423971
 20
-1.281561
 30
0.0
  0
SEQEND
  8
CI
  0
POLYLINE
  8
CI
 66
     1
 10
0.0
 20
0.0
 30
0.0
 40
0.00375
 41
0.00375
  0
VERTEX
  8
CI
 10
-0.569804
 20
-1.084986
 30
0.0
  0
VERTEX
  8
CI
 10
-0.569804
 20
-1.281561
 30
0.0
  0
SEQEND
  8
CI
  0
POLYLINE
  8
CI
 66
     1
 10
0.0
 20
0.0
 30
0.0
 40
0.00375
 41
0.00375
  0
VERTEX
  8
CI
 10
-0.715638
 20
-1.084986
 30
0.0
  0
VERTEX
  8
CI
 10
-0.715638
 20
-1.281561
 30
0.0
  0
SEQEND
  8
CI
  0
POLYLINE
  8
CI
 66
     1
 10
0.0
 20
0.0
 30
0.0
 40
0.00375
 41
0.00375
  0
VERTEX
  8
CI
 10
-0.861471
 20
-1.084986
 30
0.0
  0
VERTEX
  8
CI
 10
-0.861471
 20
-1.281561
 30
0.0
  0
SEQEND
  8
CI
  0
POLYLINE
  8
CI
 66
     1
 10
0.0
 20
0.0
 30
0.0
 40
0.00375
 41
0.00375
  0
VERTEX
  8
CI
 10
-1.007304
 20
-1.084986
 30
0.0
  0
VERTEX
  8
CI
 10
-1.007304
 20
-1.281561
 30
0.0
  0
SEQEND
  8
CI
  0
POLYLINE
  8
CI
 66
     1
 10
0.0
 20
0.0
 30
0.0
  0
VERTEX
  8
CI
 10
-1.226054
 20
-1.027023
 30
0.0
  0
VERTEX
  8
CI
 10
-1.226054
 20
-1.339523
 30
0.0
  0
SEQEND
  8
CI
  0
POLYLINE
  8
CI
 66
     1
 10
0.0
 20
0.0
 30
0.0
  0
VERTEX
  8
CI
 10
-1.080221
 20
-1.027023
 30
0.0
  0
VERTEX
  8
CI
 10
-1.080221
 20
-1.339523
 30
0.0
  0
SEQEND
  8
CI
  0
POLYLINE
  8
CI
 66
     1
 10
0.0
 20
0.0
 30
0.0
 40
0.00375
 41
0.00375
  0
VERTEX
  8
CI
 10
-1.153138
 20
-1.084986
 30
0.0
  0
VERTEX
  8
CI
 10
-1.153138
 20
-1.281561
 30
0.0
  0
SEQEND
  8
CI
  0
POLYLINE
  8
CI
 66
     1
 10
0.0
 20
0.0
 30
0.0
  0
VERTEX
  8
CI
 10
-0.934388
 20
-1.027023
 30
0.0
  0
VERTEX
  8
CI
 10
-0.934388
 20
-1.339523
 30
0.0
  0
SEQEND
  8
CI
  0
POLYLINE
  8
CI
 66
     1
 10
0.0
 20
0.0
 30
0.0
  0
VERTEX
  8
CI
 10
-0.788554
 20
-1.027023
 30
0.0
  0
VERTEX
  8
CI
 10
-0.788554
 20
-1.339523
 30
0.0
  0
SEQEND
  8
CI
  0
POLYLINE
  8
CI
 66
     1
 10
0.0
 20
0.0
 30
0.0
  0
VERTEX
  8
CI
 10
-0.642721
 20
-1.027023
 30
0.0
  0
VERTEX
  8
CI
 10
-0.642721
 20
-1.339523
 30
0.0
  0
SEQEND
  8
CI
  0
POLYLINE
  8
CI
 66
     1
 10
0.0
 20
0.0
 30
0.0
  0
VERTEX
  8
CI
 10
-0.496888
 20
-1.027023
 30
0.0
  0
VERTEX
  8
CI
 10
-0.496888
 20
-1.339523
 30
0.0
  0
SEQEND
  8
CI
  0
LINE
  8
CI
 10
-0.377721
 20
-1.011873
 30
0.0
 11
-0.377721
 21
-1.354873
 31
0.0
  0
LINE
  8
OBJ
 10
-1.336054
 20
-0.683373
 30
0.0
 11
-1.336054
 21
-1.683373
 31
0.0
  0
LINE
  8
CI
 10
-1.336054
 20
-1.339623
 30
0.0
 11
-1.336054
 21
-1.027123
 31
0.0
  0
LINE
  8
SHAFT
 10
0.973946
 20
-1.464573
 30
0.0
 11
4.603946
 21
-1.464573
 31
0.0
  0
LINE
  8
OBJ
 10
0.223946
 20
-1.652373
 30
0.0
 11
0.973946
 21
-1.652373
 31
0.0
  0
LINE
  8
CI
 10
-1.226054
 20
-1.339623
 30
0.0
 11
-0.377721
 21
-1.339623
 31
0.0
  0
LINE
  8
CI
 10
-1.316054
 20
-1.402173
 30
0.0
 11
-1.246054
 21
-1.402173
 31
0.0
  0
LINE
  8
CI
 10
-1.316054
 20
-1.277173
 30
0.0
 11
-1.246054
 21
-1.277173
 31
0.0
  0
ARC
  8
CI
 10
-1.228398
 20
-1.339673
 30
0.0
 40
0.107656
 50
144.510637
 51
215.489363
  0
ARC
  8
CI
 10
-1.33371
 20
-1.339673
 30
0.0
 40
0.107656
 50
324.510637
 51
35.489363
  0
LINE
  8
CI
 10
-0.127721
 20
-1.354873
 30
0.0
 11
0.102279
 21
-1.354873
 31
0.0
  0
LINE
  8
CI
 10
-0.377721
 20
-1.354873
 30
0.0
 11
-0.190221
 21
-1.354873
 31
0.0
  0
LINE
  8
CI
 10
-0.158971
 20
-1.339573
 30
0.0
 11
-0.127721
 21
-1.354873
 31
0.0
  0
LINE
  8
CI
 10
-0.190221
 20
-1.354873
 30
0.0
 11
-0.158971
 21
-1.339573
 31
0.0
  0
LINE
  8
OBJ
 10
0.163946
 20
-1.683373
 30
0.0
 11
0.163946
 21
-1.245804
 31
0.0
  0
LINE
  8
CI
 10
0.122279
 20
-1.245873
 30
0.0
 11
0.162279
 21
-1.245873
 31
0.0
  0
ARC
  8
CI
 10
0.057289
 20
-1.307973
 30
0.0
 40
0.06499
 50
313.809396
 51
46.190604
  0
LINE
  8
CI
 10
-0.065221
 20
-1.261073
 30
0.0
 11
0.102279
 21
-1.261073
 31
0.0
  0
LINE
  8
CI
 10
0.165405
 20
-1.245628
 30
0.0
 11
0.165405
 21
-1.245873
 31
0.0
  0
LINE
  8
CI
 10
0.182279
 20
-1.140873
 30
0.0
 11
0.182279
 21
-1.225873
 31
0.0
  0
ARC
  8
CI
 10
0.162279
 20
-1.225873
 30
0.0
 40
0.02
 50
270.0
 51
0.0
  0
LINE
  8
CI
 10
4.728946
 20
-1.370873
 30
0.0
 11
4.853946
 21
-1.370873
 31
0.0
  0
LINE
  8
CI
 10
4.728946
 20
-1.277123
 30
0.0
 11
4.853946
 21
-1.277123
 31
0.0
  0
LINE
  8
CI
 10
4.603946
 20
-1.308373
 30
0.0
 11
4.728946
 21
-1.308373
 31
0.0
  0
LINE
  8
CI
 10
2.243946
 20
1.725573
 30
0.0
 11
2.283946
 21
1.725573
 31
0.0
  0
LINE
  8
CI
 10
2.243946
 20
1.600573
 30
0.0
 11
2.283946
 21
1.600573
 31
0.0
  0
LINE
  8
CI
 10
2.243946
 20
-0.965873
 30
0.0
 11
2.283946
 21
-0.965873
 31
0.0
  0
LINE
  8
CI
 10
2.243946
 20
-0.840873
 30
0.0
 11
2.283946
 21
-0.840873
 31
0.0
  0
LINE
  8
SHAFT
 10
0.973946
 20
2.503073
 30
0.0
 11
4.603946
 21
2.503073
 31
0.0
  0
LINE
  8
SHAFT
 10
0.973946
 20
1.943073
 30
0.0
 11
4.603946
 21
1.943073
 31
0.0
  0
ARC
  8
CI
 10
1.203907
 20
1.663073
 30
0.0
 40
0.229961
 50
155.927314
 51
204.072686
  0
ARC
  8
CI
 10
0.853985
 20
1.663073
 30
0.0
 40
0.229961
 50
335.927314
 51
24.072686
  0
LINE
  8
CI
 10
0.973946
 20
1.506823
 30
0.0
 11
0.973946
 21
1.819323
 31
0.0
  0
LINE
  8
CI
 10
1.083946
 20
1.506723
 30
0.0
 11
1.083946
 21
1.819423
 31
0.0
  0
POLYLINE
  8
CI
 66
     1
 10
0.0
 20
0.0
 30
0.0
  0
VERTEX
  8
CI
 10
1.083946
 20
1.819223
 30
0.0
  0
VERTEX
  8
CI
 10
1.083946
 20
1.506723
 30
0.0
  0
SEQEND
  8
CI
  0
LINE
  8
OBJ
 10
0.973946
 20
0.973073
 30
0.0
 11
0.973946
 21
3.473073
 31
0.0
  0
LINE
  8
CI
 10
0.223946
 20
1.569273
 30
0.0
 11
0.223946
 21
1.756873
 31
0.0
  0
LINE
  8
OBJ
 10
0.163946
 20
0.973073
 30
0.0
 11
0.163946
 21
3.473073
 31
0.0
  0
LINE
  8
OBJ
 10
0.223946
 20
3.473073
 30
0.0
 11
0.223946
 21
0.973073
 31
0.0
  0
POLYLINE
  8
CI
 66
     1
 10
0.0
 20
0.0
 30
0.0
 40
0.00375
 41
0.00375
  0
VERTEX
  8
CI
 10
1.594362
 20
1.76126
 30
0.0
  0
VERTEX
  8
CI
 10
1.594362
 20
1.564685
 30
0.0
  0
SEQEND
  8
CI
  0
POLYLINE
  8
CI
 66
     1
 10
0.0
 20
0.0
 30
0.0
 40
0.00375
 41
0.00375
  0
VERTEX
  8
CI
 10
1.448529
 20
1.76126
 30
0.0
  0
VERTEX
  8
CI
 10
1.448529
 20
1.564685
 30
0.0
  0
SEQEND
  8
CI
  0
POLYLINE
  8
CI
 66
     1
 10
0.0
 20
0.0
 30
0.0
 40
0.00375
 41
0.00375
  0
VERTEX
  8
CI
 10
1.302696
 20
1.76126
 30
0.0
  0
VERTEX
  8
CI
 10
1.302696
 20
1.564685
 30
0.0
  0
SEQEND
  8
CI
  0
POLYLINE
  8
CI
 66
     1
 10
0.0
 20
0.0
 30
0.0
 40
0.00375
 41
0.00375
  0
VERTEX
  8
CI
 10
1.156862
 20
1.76126
 30
0.0
  0
VERTEX
  8
CI
 10
1.156862
 20
1.564685
 30
0.0
  0
SEQEND
  8
CI
  0
POLYLINE
  8
CI
 66
     1
 10
0.0
 20
0.0
 30
0.0
  0
VERTEX
  8
CI
 10
1.521446
 20
1.819223
 30
0.0
  0
VERTEX
  8
CI
 10
1.521446
 20
1.506723
 30
0.0
  0
SEQEND
  8
CI
  0
POLYLINE
  8
CI
 66
     1
 10
0.0
 20
0.0
 30
0.0
  0
VERTEX
  8
CI
 10
1.375612
 20
1.819223
 30
0.0
  0
VERTEX
  8
CI
 10
1.375612
 20
1.506723
 30
0.0
  0
SEQEND
  8
CI
  0
POLYLINE
  8
CI
 66
     1
 10
0.0
 20
0.0
 30
0.0
  0
VERTEX
  8
CI
 10
1.229779
 20
1.819223
 30
0.0
  0
VERTEX
  8
CI
 10
1.229779
 20
1.506723
 30
0.0
  0
SEQEND
  8
CI
  0
ARC
  8
CI
 10
2.083013
 20
1.663073
 30
0.0
 40
0.160932
 50
331.130789
 51
28.869211
  0
POLYLINE
  8
CI
 66
     1
 10
0.0
 20
0.0
 30
0.0
  0
VERTEX
  8
CI
 10
1.667279
 20
1.819223
 30
0.0
  0
VERTEX
  8
CI
 10
1.667279
 20
1.506723
 30
0.0
  0
SEQEND
  8
CI
  0
LINE
  8
CI
 10
2.056446
 20
1.834573
 30
0.0
 11
2.056446
 21
1.491573
 31
0.0
  0
LINE
  8
CI
 10
1.962696
 20
1.819273
 30
0.0
 11
1.962696
 21
1.506873
 31
0.0
  0
LINE
  8
CI
 10
1.993946
 20
1.834573
 30
0.0
 11
1.993946
 21
1.491573
 31
0.0
  0
LINE
  8
CI
 10
2.243946
 20
1.787673
 30
0.0
 11
2.243946
 21
1.538473
 31
0.0
  0
LINE
  8
CI
 10
1.931446
 20
1.834573
 30
0.0
 11
1.931446
 21
1.491573
 31
0.0
  0
LINE
  8
CI
 10
1.743946
 20
1.834573
 30
0.0
 11
1.743946
 21
1.491573
 31
0.0
  0
LINE
  8
OBJ
 10
0.223946
 20
0.973073
 30
0.0
 11
0.973946
 21
0.973073
 31
0.0
  0
LINE
  8
OBJ
 10
0.223946
 20
-0.652373
 30
0.0
 11
0.973946
 21
-0.652373
 31
0.0
  0
LINE
  8
CI
 10
-0.743554
 20
-0.533373
 30
0.0
 11
-0.368554
 21
-0.533373
 31
0.0
  0
LINE
  8
CI
 10
-0.743554
 20
-0.658373
 30
0.0
 11
-0.368554
 21
-0.658373
 31
0.0
  0
LINE
  8
CI
 10
-1.226054
 20
-1.027123
 30
0.0
 11
-0.377721
 21
-1.027123
 31
0.0
  0
LINE
  8
CI
 10
-1.316054
 20
-0.964573
 30
0.0
 11
-1.246054
 21
-0.964573
 31
0.0
  0
LINE
  8
CI
 10
-1.316054
 20
-1.089573
 30
0.0
 11
-1.246054
 21
-1.089573
 31
0.0
  0
ARC
  8
CI
 10
-1.228398
 20
-1.027073
 30
0.0
 40
0.107656
 50
144.510637
 51
215.489363
  0
ARC
  8
CI
 10
-1.33371
 20
-1.027073
 30
0.0
 40
0.107656
 50
324.510637
 51
35.489363
  0
LINE
  8
CI
 10
-0.743554
 20
-0.658373
 30
0.0
 11
-0.743554
 21
-0.533373
 31
0.0
  0
LINE
  8
CI
 10
-0.649804
 20
-0.658373
 30
0.0
 11
-0.649804
 21
-0.533373
 31
0.0
  0
LINE
  8
CI
 10
-0.681054
 20
-0.683373
 30
0.0
 11
-0.681054
 21
-0.658373
 31
0.0
  0
LINE
  8
CI
 10
-0.127721
 20
-1.011873
 30
0.0
 11
0.102279
 21
-1.011873
 31
0.0
  0
LINE
  8
CI
 10
-0.377721
 20
-1.011873
 30
0.0
 11
-0.190221
 21
-1.011873
 31
0.0
  0
LINE
  8
CI
 10
-0.158971
 20
-1.027173
 30
0.0
 11
-0.127721
 21
-1.011873
 31
0.0
  0
LINE
  8
CI
 10
-0.190221
 20
-1.011873
 30
0.0
 11
-0.158971
 21
-1.027173
 31
0.0
  0
LINE
  8
CI
 10
-0.368554
 20
-0.658373
 30
0.0
 11
-0.368554
 21
-0.533373
 31
0.0
  0
LINE
  8
CI
 10
-0.462304
 20
-0.658373
 30
0.0
 11
-0.462304
 21
-0.533373
 31
0.0
  0
LINE
  8
CI
 10
-0.431054
 20
-0.683373
 30
0.0
 11
-0.431054
 21
-0.658373
 31
0.0
  0
LINE
  8
OBJ
 10
0.163946
 20
-1.120943
 30
0.0
 11
0.163946
 21
-0.683373
 31
0.0
  0
LINE
  8
CI
 10
0.122279
 20
-1.120873
 30
0.0
 11
0.162279
 21
-1.120873
 31
0.0
  0
LINE
  8
CI
 10
-0.065221
 20
-1.105673
 30
0.0
 11
0.102279
 21
-1.105673
 31
0.0
  0
ARC
  8
CI
 10
0.057289
 20
-1.058773
 30
0.0
 40
0.06499
 50
313.809396
 51
46.190604
  0
ARC
  8
CI
 10
0.183946
 20
-0.945873
 30
0.0
 40
0.02
 50
180.0
 51
270.0
  0
LINE
  8
CI
 10
0.183946
 20
-0.965873
 30
0.0
 11
0.223946
 21
-0.965873
 31
0.0
  0
LINE
  8
CI
 10
0.165405
 20
-1.120873
 30
0.0
 11
0.165405
 21
-1.121119
 31
0.0
  0
LINE
  8
CI
 10
0.183946
 20
-0.840873
 30
0.0
 11
0.223946
 21
-0.840873
 31
0.0
  0
ARC
  8
CI
 10
0.183946
 20
-0.860873
 30
0.0
 40
0.02
 50
90.0
 51
180.0
  0
LINE
  8
CI
 10
0.163946
 20
-0.860873
 30
0.0
 11
0.163946
 21
-0.945873
 31
0.0
  0
LINE
  8
CI
 10
-1.226054
 20
0.506823
 30
0.0
 11
-0.377721
 21
0.506823
 31
0.0
  0
LINE
  8
CI
 10
-1.226054
 20
0.819323
 30
0.0
 11
-0.377721
 21
0.819323
 31
0.0
  0
LINE
  8
OBJ
 10
-1.336054
 20
0.973073
 30
0.0
 11
0.163946
 21
0.973073
 31
0.0
  0
LINE
  8
CI
 10
-1.226054
 20
0.506723
 30
0.0
 11
-1.226054
 21
0.819423
 31
0.0
  0
POLYLINE
  8
CI
 66
     1
 10
0.0
 20
0.0
 30
0.0
  0
VERTEX
  8
CI
 10
-1.226054
 20
0.819323
 30
0.0
  0
VERTEX
  8
CI
 10
-1.226054
 20
0.506823
 30
0.0
  0
SEQEND
  8
CI
  0
ARC
  8
CI
 10
-1.456015
 20
0.663073
 30
0.0
 40
0.229961
 50
335.927314
 51
24.072686
  0
POLYLINE
  8
CI
 66
     1
 10
0.0
 20
0.0
 30
0.0
 40
0.00375
 41
0.00375
  0
VERTEX
  8
CI
 10
-1.153138
 20
0.76136
 30
0.0
  0
VERTEX
  8
CI
 10
-1.153138
 20
0.564785
 30
0.0
  0
SEQEND
  8
CI
  0
POLYLINE
  8
CI
 66
     1
 10
0.0
 20
0.0
 30
0.0
  0
VERTEX
  8
CI
 10
-1.080221
 20
0.819323
 30
0.0
  0
VERTEX
  8
CI
 10
-1.080221
 20
0.506823
 30
0.0
  0
SEQEND
  8
CI
  0
LINE
  8
CI
 10
-1.336054
 20
0.506823
 30
0.0
 11
-1.336054
 21
0.819323
 31
0.0
  0
ARC
  8
CI
 10
-1.106093
 20
0.663073
 30
0.0
 40
0.229961
 50
155.927314
 51
204.072686
  0
LINE
  8
CI
 10
-1.336054
 20
0.819323
 30
0.0
 11
-1.336054
 21
0.506823
 31
0.0
  0
LINE
  8
OBJ
 10
-1.336054
 20
0.973073
 30
0.0
 11
-1.336054
 21
0.473073
 31
0.0
  0
LINE
  8
CI
 10
-1.316054
 20
0.444273
 30
0.0
 11
-1.246054
 21
0.444273
 31
0.0
  0
LINE
  8
CI
 10
-1.316054
 20
0.569273
 30
0.0
 11
-1.246054
 21
0.569273
 31
0.0
  0
ARC
  8
CI
 10
-1.228398
 20
0.506773
 30
0.0
 40
0.107656
 50
144.510637
 51
215.489363
  0
ARC
  8
CI
 10
-1.33371
 20
0.506773
 30
0.0
 40
0.107656
 50
324.510637
 51
35.489363
  0
LINE
  8
CI
 10
-1.316054
 20
0.756873
 30
0.0
 11
-1.246054
 21
0.756873
 31
0.0
  0
LINE
  8
CI
 10
-1.316054
 20
0.881873
 30
0.0
 11
-1.246054
 21
0.881873
 31
0.0
  0
ARC
  8
CI
 10
-1.228398
 20
0.819373
 30
0.0
 40
0.107656
 50
144.510637
 51
215.489363
  0
ARC
  8
CI
 10
-1.33371
 20
0.819373
 30
0.0
 40
0.107656
 50
324.510637
 51
35.489363
  0
POLYLINE
  8
CI
 66
     1
 10
0.0
 20
0.0
 30
0.0
 40
0.00375
 41
0.00375
  0
VERTEX
  8
CI
 10
-0.569804
 20
0.76136
 30
0.0
  0
VERTEX
  8
CI
 10
-0.569804
 20
0.564785
 30
0.0
  0
SEQEND
  8
CI
  0
POLYLINE
  8
CI
 66
     1
 10
0.0
 20
0.0
 30
0.0
 40
0.00375
 41
0.00375
  0
VERTEX
  8
CI
 10
-0.715638
 20
0.76136
 30
0.0
  0
VERTEX
  8
CI
 10
-0.715638
 20
0.564785
 30
0.0
  0
SEQEND
  8
CI
  0
POLYLINE
  8
CI
 66
     1
 10
0.0
 20
0.0
 30
0.0
  0
VERTEX
  8
CI
 10
-0.642721
 20
0.819323
 30
0.0
  0
VERTEX
  8
CI
 10
-0.642721
 20
0.506823
 30
0.0
  0
SEQEND
  8
CI
  0
POLYLINE
  8
CI
 66
     1
 10
0.0
 20
0.0
 30
0.0
  0
VERTEX
  8
CI
 10
-0.788554
 20
0.819323
 30
0.0
  0
VERTEX
  8
CI
 10
-0.788554
 20
0.506823
 30
0.0
  0
SEQEND
  8
CI
  0
POLYLINE
  8
CI
 66
     1
 10
0.0
 20
0.0
 30
0.0
 40
0.00375
 41
0.00375
  0
VERTEX
  8
CI
 10
-0.861471
 20
0.76136
 30
0.0
  0
VERTEX
  8
CI
 10
-0.861471
 20
0.564785
 30
0.0
  0
SEQEND
  8
CI
  0
POLYLINE
  8
CI
 66
     1
 10
0.0
 20
0.0
 30
0.0
  0
VERTEX
  8
CI
 10
-0.934388
 20
0.819323
 30
0.0
  0
VERTEX
  8
CI
 10
-0.934388
 20
0.506823
 30
0.0
  0
SEQEND
  8
CI
  0
POLYLINE
  8
CI
 66
     1
 10
0.0
 20
0.0
 30
0.0
 40
0.00375
 41
0.00375
  0
VERTEX
  8
CI
 10
-1.007304
 20
0.76136
 30
0.0
  0
VERTEX
  8
CI
 10
-1.007304
 20
0.564785
 30
0.0
  0
SEQEND
  8
CI
  0
LINE
  8
CI
 10
-0.127721
 20
0.834573
 30
0.0
 11
0.102279
 21
0.834573
 31
0.0
  0
LINE
  8
CI
 10
-0.127721
 20
0.491573
 30
0.0
 11
0.102279
 21
0.491573
 31
0.0
  0
LINE
  8
CI
 10
-0.158971
 20
0.819273
 30
0.0
 11
-0.158971
 21
0.506873
 31
0.0
  0
LINE
  8
CI
 10
-0.190221
 20
0.834573
 30
0.0
 11
-0.190221
 21
0.491573
 31
0.0
  0
LINE
  8
CI
 10
-0.127721
 20
0.834573
 30
0.0
 11
-0.127721
 21
0.491573
 31
0.0
  0
POLYLINE
  8
CI
 66
     1
 10
0.0
 20
0.0
 30
0.0
 40
0.00375
 41
0.00375
  0
VERTEX
  8
CI
 10
-0.423971
 20
0.76136
 30
0.0
  0
VERTEX
  8
CI
 10
-0.423971
 20
0.564785
 30
0.0
  0
SEQEND
  8
CI
  0
POLYLINE
  8
CI
 66
     1
 10
0.0
 20
0.0
 30
0.0
  0
VERTEX
  8
CI
 10
-0.496888
 20
0.819323
 30
0.0
  0
VERTEX
  8
CI
 10
-0.496888
 20
0.506823
 30
0.0
  0
SEQEND
  8
CI
  0
LINE
  8
CI
 10
-0.377721
 20
0.834573
 30
0.0
 11
-0.377721
 21
0.491573
 31
0.0
  0
LINE
  8
CI
 10
-0.377721
 20
0.491573
 30
0.0
 11
-0.190221
 21
0.491573
 31
0.0
  0
LINE
  8
CI
 10
-0.158971
 20
0.506873
 30
0.0
 11
-0.127721
 21
0.491573
 31
0.0
  0
LINE
  8
CI
 10
-0.190221
 20
0.491573
 30
0.0
 11
-0.158971
 21
0.506873
 31
0.0
  0
LINE
  8
CI
 10
-0.377721
 20
0.834573
 30
0.0
 11
-0.190221
 21
0.834573
 31
0.0
  0
LINE
  8
CI
 10
-0.190221
 20
0.834573
 30
0.0
 11
-0.158971
 21
0.819273
 31
0.0
  0
LINE
  8
CI
 10
-0.158971
 20
0.819273
 30
0.0
 11
-0.127721
 21
0.834573
 31
0.0
  0
LINE
  8
CI
 10
0.182279
 20
0.705573
 30
0.0
 11
0.182279
 21
0.620573
 31
0.0
  0
LINE
  8
CI
 10
0.165405
 20
0.725573
 30
0.0
 11
0.165405
 21
0.600573
 31
0.0
  0
LINE
  8
CI
 10
0.122279
 20
0.787673
 30
0.0
 11
0.122279
 21
0.538473
 31
0.0
  0
ARC
  8
CI
 10
-0.038653
 20
0.663073
 30
0.0
 40
0.160932
 50
331.130789
 51
28.869211
  0
LINE
  8
CI
 10
-0.065221
 20
0.834573
 30
0.0
 11
-0.065221
 21
0.491573
 31
0.0
  0
LINE
  8
CI
 10
0.122279
 20
0.600573
 30
0.0
 11
0.162279
 21
0.600573
 31
0.0
  0
LINE
  8
CI
 10
-0.065221
 20
0.585373
 30
0.0
 11
0.102279
 21
0.585373
 31
0.0
  0
ARC
  8
CI
 10
0.057289
 20
0.538473
 30
0.0
 40
0.06499
 50
313.809396
 51
46.190604
  0
ARC
  8
CI
 10
0.162279
 20
0.620573
 30
0.0
 40
0.02
 50
270.0
 51
0.0
  0
LINE
  8
CI
 10
0.122279
 20
0.725573
 30
0.0
 11
0.162279
 21
0.725573
 31
0.0
  0
ARC
  8
CI
 10
0.057289
 20
0.787673
 30
0.0
 40
0.06499
 50
313.809396
 51
46.190604
  0
LINE
  8
CI
 10
-0.065221
 20
0.740773
 30
0.0
 11
0.102279
 21
0.740773
 31
0.0
  0
ARC
  8
CI
 10
0.162279
 20
0.705573
 30
0.0
 40
0.02
 50
0.0
 51
90.0
  0
LINE
  8
SHAFT
 10
0.163946
 20
1.160573
 30
0.0
 11
0.223946
 21
1.160573
 31
0.0
  0
LINE
  8
CI
 10
0.163946
 20
1.569273
 30
0.0
 11
0.223946
 21
1.569273
 31
0.0
  0
LINE
  8
SHAFT
 10
0.163946
 20
1.535573
 30
0.0
 11
0.223946
 21
1.535573
 31
0.0
  0
LINE
  8
CI
 10
1.083946
 20
-1.059623
 30
0.0
 11
1.743946
 21
-1.059623
 31
0.0
  0
LINE
  8
CI
 10
1.083946
 20
-0.747123
 30
0.0
 11
1.743946
 21
-0.747123
 31
0.0
  0
POLYLINE
  8
CI
 66
     1
 10
0.0
 20
0.0
 30
0.0
  0
VERTEX
  8
CI
 10
1.229779
 20
-0.747023
 30
0.0
  0
VERTEX
  8
CI
 10
1.229779
 20
-1.059523
 30
0.0
  0
SEQEND
  8
CI
  0
LINE
  8
CI
 10
1.083946
 20
-1.059723
 30
0.0
 11
1.083946
 21
-0.747023
 31
0.0
  0
POLYLINE
  8
CI
 66
     1
 10
0.0
 20
0.0
 30
0.0
  0
VERTEX
  8
CI
 10
1.083946
 20
-0.747023
 30
0.0
  0
VERTEX
  8
CI
 10
1.083946
 20
-1.059523
 30
0.0
  0
SEQEND
  8
CI
  0
ARC
  8
CI
 10
0.97629
 20
-0.747073
 30
0.0
 40
0.107656
 50
324.510637
 51
35.489363
  0
LINE
  8
CI
 10
0.973946
 20
-1.059623
 30
0.0
 11
0.973946
 21
-0.747123
 31
0.0
  0
ARC
  8
CI
 10
1.081602
 20
-0.747073
 30
0.0
 40
0.107656
 50
144.510637
 51
215.489363
  0
ARC
  8
CI
 10
0.853985
 20
-0.903373
 30
0.0
 40
0.229961
 50
335.927314
 51
24.072686
  0
ARC
  8
CI
 10
0.97629
 20
-1.059673
 30
0.0
 40
0.107656
 50
324.510637
 51
35.489363
  0
ARC
  8
CI
 10
1.203907
 20
-0.903373
 30
0.0
 40
0.229961
 50
155.927314
 51
204.072686
  0
LINE
  8
CI
 10
0.993946
 20
-0.997173
 30
0.0
 11
1.063946
 21
-0.997173
 31
0.0
  0
LINE
  8
CI
 10
0.993946
 20
-1.122173
 30
0.0
 11
1.063946
 21
-1.122173
 31
0.0
  0
ARC
  8
CI
 10
1.081602
 20
-1.059673
 30
0.0
 40
0.107656
 50
144.510637
 51
215.489363
  0
LINE
  8
CI
 10
0.993946
 20
-0.809573
 30
0.0
 11
1.063946
 21
-0.809573
 31
0.0
  0
POLYLINE
  8
CI
 66
     1
 10
0.0
 20
0.0
 30
0.0
 40
0.00375
 41
0.00375
  0
VERTEX
  8
CI
 10
1.302696
 20
-0.804986
 30
0.0
  0
VERTEX
  8
CI
 10
1.302696
 20
-1.001561
 30
0.0
  0
SEQEND
  8
CI
  0
POLYLINE
  8
CI
 66
     1
 10
0.0
 20
0.0
 30
0.0
 40
0.00375
 41
0.00375
  0
VERTEX
  8
CI
 10
1.156862
 20
-0.804986
 30
0.0
  0
VERTEX
  8
CI
 10
1.156862
 20
-1.001561
 30
0.0
  0
SEQEND
  8
CI
  0
LINE
  8
CI
 10
0.993946
 20
-0.684573
 30
0.0
 11
1.063946
 21
-0.684573
 31
0.0
  0
LINE
  8
CI
 10
1.743946
 20
-0.731873
 30
0.0
 11
1.931446
 21
-0.731873
 31
0.0
  0
LINE
  8
CI
 10
1.743946
 20
-1.074873
 30
0.0
 11
1.931446
 21
-1.074873
 31
0.0
  0
POLYLINE
  8
CI
 66
     1
 10
0.0
 20
0.0
 30
0.0
  0
VERTEX
  8
CI
 10
1.667279
 20
-0.747023
 30
0.0
  0
VERTEX
  8
CI
 10
1.667279
 20
-1.059523
 30
0.0
  0
SEQEND
  8
CI
  0
LINE
  8
CI
 10
1.743946
 20
-0.731873
 30
0.0
 11
1.743946
 21
-1.074873
 31
0.0
  0
POLYLINE
  8
CI
 66
     1
 10
0.0
 20
0.0
 30
0.0
  0
VERTEX
  8
CI
 10
1.375612
 20
-0.747023
 30
0.0
  0
VERTEX
  8
CI
 10
1.375612
 20
-1.059523
 30
0.0
  0
SEQEND
  8
CI
  0
POLYLINE
  8
CI
 66
     1
 10
0.0
 20
0.0
 30
0.0
  0
VERTEX
  8
CI
 10
1.521446
 20
-0.747023
 30
0.0
  0
VERTEX
  8
CI
 10
1.521446
 20
-1.059523
 30
0.0
  0
SEQEND
  8
CI
  0
POLYLINE
  8
CI
 66
     1
 10
0.0
 20
0.0
 30
0.0
 40
0.00375
 41
0.00375
  0
VERTEX
  8
CI
 10
1.448529
 20
-0.804986
 30
0.0
  0
VERTEX
  8
CI
 10
1.448529
 20
-1.001561
 30
0.0
  0
SEQEND
  8
CI
  0
POLYLINE
  8
CI
 66
     1
 10
0.0
 20
0.0
 30
0.0
 40
0.00375
 41
0.00375
  0
VERTEX
  8
CI
 10
1.594362
 20
-0.804986
 30
0.0
  0
VERTEX
  8
CI
 10
1.594362
 20
-1.001561
 30
0.0
  0
SEQEND
  8
CI
  0
LINE
  8
CI
 10
2.056446
 20
-0.731873
 30
0.0
 11
2.056446
 21
-1.074873
 31
0.0
  0
ARC
  8
CI
 10
2.178955
 20
-0.778773
 30
0.0
 40
0.06499
 50
313.809396
 51
46.190604
  0
LINE
  8
CI
 10
1.962696
 20
-0.747173
 30
0.0
 11
1.962696
 21
-1.059573
 31
0.0
  0
LINE
  8
CI
 10
1.931446
 20
-0.731873
 30
0.0
 11
1.931446
 21
-1.074873
 31
0.0
  0
LINE
  8
CI
 10
1.993946
 20
-0.731873
 30
0.0
 11
1.993946
 21
-1.074873
 31
0.0
  0
LINE
  8
CI
 10
1.993946
 20
-1.074873
 30
0.0
 11
2.223946
 21
-1.074873
 31
0.0
  0
LINE
  8
CI
 10
1.962696
 20
-1.059573
 30
0.0
 11
1.993946
 21
-1.074873
 31
0.0
  0
LINE
  8
CI
 10
1.931446
 20
-1.074873
 30
0.0
 11
1.962696
 21
-1.059573
 31
0.0
  0
LINE
  8
CI
 10
2.243946
 20
-0.778773
 30
0.0
 11
2.243946
 21
-1.027973
 31
0.0
  0
ARC
  8
CI
 10
2.083013
 20
-0.903373
 30
0.0
 40
0.160932
 50
331.130789
 51
28.869211
  0
LINE
  8
CI
 10
2.056446
 20
-0.981073
 30
0.0
 11
2.223946
 21
-0.981073
 31
0.0
  0
ARC
  8
CI
 10
2.178955
 20
-1.027973
 30
0.0
 40
0.06499
 50
313.809396
 51
46.190604
  0
LINE
  8
CI
 10
2.056446
 20
-0.825673
 30
0.0
 11
2.223946
 21
-0.825673
 31
0.0
  0
LINE
  8
CI
 10
1.993946
 20
-0.731873
 30
0.0
 11
2.223946
 21
-0.731873
 31
0.0
  0
LINE
  8
CI
 10
1.962696
 20
-0.747173
 30
0.0
 11
1.993946
 21
-0.731873
 31
0.0
  0
LINE
  8
CI
 10
1.931446
 20
-0.731873
 30
0.0
 11
1.962696
 21
-0.747173
 31
0.0
  0
LINE
  8
CI
 10
1.083946
 20
1.506823
 30
0.0
 11
1.743946
 21
1.506823
 31
0.0
  0
LINE
  8
CENTER
 10
0.598946
 20
1.280573
 30
0.0
 11
0.598946
 21
1.415573
 31
0.0
  0
CIRCLE
  8
HID
 10
0.598946
 20
1.348073
 30
0.0
 40
0.095
  0
CIRCLE
  8
CI
 10
0.598946
 20
1.348073
 30
0.0
 40
0.08
  0
LINE
  8
CENTER
 10
0.531446
 20
1.348073
 30
0.0
 11
0.666446
 21
1.348073
 31
0.0
  0
ARC
  8
CI
 10
0.97629
 20
1.506773
 30
0.0
 40
0.107656
 50
324.510637
 51
35.489363
  0
ARC
  8
CI
 10
1.081602
 20
1.506773
 30
0.0
 40
0.107656
 50
144.510637
 51
215.489363
  0
LINE
  8
CI
 10
0.993946
 20
1.444273
 30
0.0
 11
1.063946
 21
1.444273
 31
0.0
  0
LINE
  8
CI
 10
0.993946
 20
1.569273
 30
0.0
 11
1.063946
 21
1.569273
 31
0.0
  0
LINE
  8
CI
 10
1.743946
 20
1.491573
 30
0.0
 11
1.931446
 21
1.491573
 31
0.0
  0
LINE
  8
CI
 10
1.993946
 20
1.491573
 30
0.0
 11
2.223946
 21
1.491573
 31
0.0
  0
LINE
  8
CI
 10
1.962696
 20
1.506873
 30
0.0
 11
1.993946
 21
1.491573
 31
0.0
  0
LINE
  8
CI
 10
1.931446
 20
1.491573
 30
0.0
 11
1.962696
 21
1.506873
 31
0.0
  0
ARC
  8
CI
 10
2.178955
 20
1.538473
 30
0.0
 40
0.06499
 50
313.809396
 51
46.190604
  0
LINE
  8
CI
 10
2.056446
 20
1.585373
 30
0.0
 11
2.223946
 21
1.585373
 31
0.0
  0
LINE
  8
OBJ
 10
0.973946
 20
3.473073
 30
0.0
 11
0.223946
 21
3.473073
 31
0.0
  0
CIRCLE
  8
HID
 10
-0.551054
 20
2.223073
 30
0.0
 40
0.09455
  0
CIRCLE
  8
CI
 10
-0.551054
 20
2.223073
 30
0.0
 40
0.0726
  0
POLYLINE
  8
CI
 66
     1
 10
0.0
 20
0.0
 30
0.0
 70
     1
  0
VERTEX
  8
CI
 10
-0.707254
 20
2.313255
 30
0.0
 50
30.0
  0
VERTEX
  8
CI
 10
-0.707254
 20
2.132891
 30
0.0
 50
30.0
  0
VERTEX
  8
CI
 10
-0.551054
 20
2.042709
 30
0.0
 50
30.0
  0
VERTEX
  8
CI
 10
-0.394854
 20
2.132891
 30
0.0
 50
30.0
  0
VERTEX
  8
CI
 10
-0.394854
 20
2.313255
 30
0.0
 50
30.0
  0
VERTEX
  8
CI
 10
-0.551054
 20
2.403437
 30
0.0
 50
30.0
  0
SEQEND
  8
CI
  0
CIRCLE
  8
OBJ
 10
-0.551054
 20
2.223073
 30
0.0
 40
0.22
  0
LINE
  8
CENTER
 10
-1.461054
 20
1.695573
 30
0.0
 11
-1.461054
 21
1.875573
 31
0.0
  0
LINE
  8
CENTER
 10
-0.926054
 20
1.785573
 30
0.0
 11
-0.746054
 21
1.785573
 31
0.0
  0
CIRCLE
  8
CI
 10
-0.836054
 20
1.785573
 30
0.0
 40
0.063
  0
LINE
  8
CENTER
 10
-0.836054
 20
1.695573
 30
0.0
 11
-0.836054
 21
1.875573
 31
0.0
  0
LINE
  8
CENTER
 10
-1.461054
 20
2.570573
 30
0.0
 11
-1.461054
 21
2.750573
 31
0.0
  0
LINE
  8
CENTER
 10
-0.836054
 20
2.570573
 30
0.0
 11
-0.836054
 21
2.750573
 31
0.0
  0
LINE
  8
CENTER
 10
-0.926054
 20
2.660573
 30
0.0
 11
-0.746054
 21
2.660573
 31
0.0
  0
CIRCLE
  8
CI
 10
-0.836054
 20
2.660573
 30
0.0
 40
0.063
  0
CIRCLE
  8
CI
 10
-0.211054
 20
1.785573
 30
0.0
 40
0.085
  0
LINE
  8
CENTER
 10
-0.211054
 20
1.695573
 30
0.0
 11
-0.211054
 21
1.875573
 31
0.0
  0
LINE
  8
CENTER
 10
-0.301054
 20
1.785573
 30
0.0
 11
-0.121054
 21
1.785573
 31
0.0
  0
LINE
  8
CI
 10
0.163946
 20
1.756873
 30
0.0
 11
0.223946
 21
1.756873
 31
0.0
  0
LINE
  8
SHAFT
 10
0.163946
 20
1.943073
 30
0.0
 11
0.223946
 21
1.943073
 31
0.0
  0
CIRCLE
  8
CI
 10
-0.211054
 20
2.660573
 30
0.0
 40
0.085
  0
LINE
  8
CENTER
 10
-0.211054
 20
2.570573
 30
0.0
 11
-0.211054
 21
2.750573
 31
0.0
  0
LINE
  8
CENTER
 10
-0.301054
 20
2.660573
 30
0.0
 11
-0.121054
 21
2.660573
 31
0.0
  0
LINE
  8
SHAFT
 10
0.163946
 20
2.503073
 30
0.0
 11
0.223946
 21
2.503073
 31
0.0
  0
LINE
  8
SHAFT
 10
0.163946
 20
2.910573
 30
0.0
 11
0.223946
 21
2.910573
 31
0.0
  0
LINE
  8
SHAFT
 10
0.163946
 20
3.285573
 30
0.0
 11
0.223946
 21
3.285573
 31
0.0
  0
LINE
  8
CENTER
 10
0.598946
 20
3.030573
 30
0.0
 11
0.598946
 21
3.165573
 31
0.0
  0
CIRCLE
  8
HID
 10
0.598946
 20
3.098073
 30
0.0
 40
0.095
  0
CIRCLE
  8
CI
 10
0.598946
 20
3.098073
 30
0.0
 40
0.08
  0
LINE
  8
CI
 10
1.083946
 20
1.819323
 30
0.0
 11
1.743946
 21
1.819323
 31
0.0
  0
ARC
  8
CI
 10
0.97629
 20
1.819373
 30
0.0
 40
0.107656
 50
324.510637
 51
35.489363
  0
ARC
  8
CI
 10
1.081602
 20
1.819373
 30
0.0
 40
0.107656
 50
144.510637
 51
215.489363
  0
LINE
  8
CI
 10
0.993946
 20
1.756873
 30
0.0
 11
1.063946
 21
1.756873
 31
0.0
  0
LINE
  8
CI
 10
0.993946
 20
1.881873
 30
0.0
 11
1.063946
 21
1.881873
 31
0.0
  0
LINE
  8
CI
 10
1.743946
 20
1.834573
 30
0.0
 11
1.931446
 21
1.834573
 31
0.0
  0
LINE
  8
CI
 10
1.993946
 20
1.834573
 30
0.0
 11
2.223946
 21
1.834573
 31
0.0
  0
LINE
  8
CI
 10
1.962696
 20
1.819273
 30
0.0
 11
1.993946
 21
1.834573
 31
0.0
  0
LINE
  8
CI
 10
1.931446
 20
1.834573
 30
0.0
 11
1.962696
 21
1.819273
 31
0.0
  0
LINE
  8
CI
 10
2.056446
 20
1.740773
 30
0.0
 11
2.223946
 21
1.740773
 31
0.0
  0
ARC
  8
CI
 10
2.178955
 20
1.787673
 30
0.0
 40
0.06499
 50
313.809396
 51
46.190604
  0
LINE
  8
CENTER
 10
0.531446
 20
3.098073
 30
0.0
 11
0.666446
 21
3.098073
 31
0.0
  0
LINE
  8
CI
 10
2.303946
 20
1.705573
 30
0.0
 11
2.303946
 21
1.620573
 31
0.0
  0
LINE
  8
CI
 10
2.287072
 20
1.725573
 30
0.0
 11
2.287072
 21
1.600573
 31
0.0
  0
LINE
  8
SHAFT
 10
2.303946
 20
-0.902173
 30
0.0
 11
4.603946
 21
-0.902173
 31
0.0
  0
ARC
  8
CI
 10
2.283946
 20
-0.945873
 30
0.0
 40
0.02
 50
270.0
 51
0.0
  0
ARC
  8
CI
 10
2.283946
 20
-0.860873
 30
0.0
 40
0.02
 50
0.0
 51
90.0
  0
LINE
  8
CI
 10
2.303946
 20
-0.860873
 30
0.0
 11
2.303946
 21
-0.945873
 31
0.0
  0
ARC
  8
CI
 10
2.283946
 20
1.620573
 30
0.0
 40
0.02
 50
270.0
 51
0.0
  0
LINE
  8
CI
 10
4.728946
 20
-1.089623
 30
0.0
 11
4.853946
 21
-1.089623
 31
0.0
  0
LINE
  8
CI
 10
4.728946
 20
-0.995873
 30
0.0
 11
4.853946
 21
-0.995873
 31
0.0
  0
LINE
  8
CI
 10
4.603946
 20
-1.058373
 30
0.0
 11
4.728946
 21
-1.058373
 31
0.0
  0
ARC
  8
CI
 10
2.283946
 20
1.705573
 30
0.0
 40
0.02
 50
0.0
 51
90.0
  0
LINE
  8
CI
 10
4.853946
 20
2.410573
 30
0.0
 11
4.853946
 21
2.035573
 31
0.0
  0
LINE
  8
SHAFT
 10
4.603946
 20
2.503073
 30
0.0
 11
4.603946
 21
1.943073
 31
0.0
  0
LINE
  8
CI
 10
4.728946
 20
2.410573
 30
0.0
 11
4.728946
 21
2.035573
 31
0.0
  0
LINE
  8
CI
 10
4.728946
 20
2.035573
 30
0.0
 11
4.853946
 21
2.035573
 31
0.0
  0
LINE
  8
CI
 10
4.728946
 20
2.129323
 30
0.0
 11
4.853946
 21
2.129323
 31
0.0
  0
LINE
  8
CI
 10
4.728946
 20
2.316823
 30
0.0
 11
4.853946
 21
2.316823
 31
0.0
  0
LINE
  8
CI
 10
4.603946
 20
2.098073
 30
0.0
 11
4.728946
 21
2.098073
 31
0.0
  0
LINE
  8
CI
 10
4.603946
 20
2.348073
 30
0.0
 11
4.728946
 21
2.348073
 31
0.0
  0
LINE
  8
CI
 10
4.728946
 20
2.410573
 30
0.0
 11
4.853946
 21
2.410573
 31
0.0
  0
ENDSEC
  0
EOF
