  0
SECTION
  2
HEADER
  9
$ACADVER
  1
AC1009
  9
$INSBASE
 10
0.0
 20
0.0
 30
0.0
  9
$EXTMIN
 10
-8.431
 20
-4.770386
 30
0.0
  9
$EXTMAX
 10
15.28971
 20
9.418432
 30
0.0
  9
$LIMMIN
 10
0.0
 20
0.0
  9
$LIMMAX
 10
12.0
 20
9.0
  9
$ORTHOMODE
 70
     1
  9
$REGENMODE
 70
     1
  9
$FILLMODE
 70
     1
  9
$QTEXTMODE
 70
     0
  9
$MIRRTEXT
 70
     1
  9
$DRAGMODE
 70
     2
  9
$LTSCALE
 40
0.5
  9
$OSMODE
 70
    32
  9
$ATTMODE
 70
     1
  9
$TEXTSIZE
 40
0.1875
  9
$TRACEWID
 40
0.05
  9
$TEXTSTYLE
  7
STANDARD
  9
$CLAYER
  8
0
  9
$CELTYPE
  6
BYLAYER
  9
$CECOLOR
 62
   256
  9
$DIMSCALE
 40
1.0
  9
$DIMASZ
 40
0.18
  9
$DIMEXO
 40
0.0625
  9
$DIMDLI
 40
0.375
  9
$DIMRND
 40
0.0
  9
$DIMDLE
 40
0.0
  9
$DIMEXE
 40
0.07
  9
$DIMTP
 40
0.0
  9
$DIMTM
 40
0.0
  9
$DIMTXT
 40
0.18
  9
$DIMCEN
 40
-0.09
  9
$DIMTSZ
 40
0.0
  9
$DIMTOL
 70
     0
  9
$DIMLIM
 70
     0
  9
$DIMTIH
 70
     0
  9
$DIMTOH
 70
     0
  9
$DIMSE1
 70
     0
  9
$DIMSE2
 70
     0
  9
$DIMTAD
 70
     0
  9
$DIMZIN
 70
     0
  9
$DIMBLK
  1

  9
$DIMASO
 70
     1
  9
$DIMSHO
 70
     1
  9
$DIMPOST
  1

  9
$DIMAPOST
  1

  9
$DIMALT
 70
     0
  9
$DIMALTD
 70
     2
  9
$DIMALTF
 40
25.4
  9
$DIMLFAC
 40
1.0
  9
$DIMTOFL
 70
     0
  9
$DIMTVP
 40
0.0
  9
$DIMTIX
 70
     0
  9
$DIMSOXD
 70
     0
  9
$DIMSAH
 70
     0
  9
$DIMBLK1
  1

  9
$DIMBLK2
  1

  9
$DIMSTYLE
  2
*UNNAMED
  9
$DIMCLRD
 70
     0
  9
$DIMCLRE
 70
     0
  9
$DIMCLRT
 70
     0
  9
$DIMTFAC
 40
1.0
  9
$DIMGAP
 40
0.09
  9
$LUNITS
 70
     2
  9
$LUPREC
 70
     4
  9
$SKETCHINC
 40
0.1
  9
$FILLETRAD
 40
0.0
  9
$AUNITS
 70
     0
  9
$AUPREC
 70
     0
  9
$MENU
  1
ACAD
  9
$ELEVATION
 40
0.0
  9
$PELEVATION
 40
0.0
  9
$THICKNESS
 40
0.0
  9
$LIMCHECK
 70
     0
  9
$BLIPMODE
 70
     0
  9
$CHAMFERA
 40
0.05
  9
$CHAMFERB
 40
0.05
  9
$SKPOLY
 70
     0
  9
$TDCREATE
 40
2450403.603094560
  9
$TDUPDATE
 40
2450406.464201041
  9
$TDINDWG
 40
0.0113265046
  9
$TDUSRTIMER
 40
0.0113265046
  9
$USRTIMER
 70
     1
  9
$ANGBASE
 50
0.0
  9
$ANGDIR
 70
     0
  9
$PDMODE
 70
     0
  9
$PDSIZE
 40
0.0
  9
$PLINEWID
 40
0.0
  9
$COORDS
 70
     2
  9
$SPLFRAME
 70
     0
  9
$SPLINETYPE
 70
     6
  9
$SPLINESEGS
 70
     8
  9
$ATTDIA
 70
     0
  9
$ATTREQ
 70
     1
  9
$HANDLING
 70
     0
  9
$HANDSEED
  5
0
  9
$SURFTAB1
 70
     6
  9
$SURFTAB2
 70
     6
  9
$SURFTYPE
 70
     6
  9
$SURFU
 70
     6
  9
$SURFV
 70
     6
  9
$UCSNAME
  2

  9
$UCSORG
 10
0.0
 20
0.0
 30
0.0
  9
$UCSXDIR
 10
1.0
 20
0.0
 30
0.0
  9
$UCSYDIR
 10
0.0
 20
1.0
 30
0.0
  9
$PUCSNAME
  2

  9
$PUCSORG
 10
0.0
 20
0.0
 30
0.0
  9
$PUCSXDIR
 10
1.0
 20
0.0
 30
0.0
  9
$PUCSYDIR
 10
0.0
 20
1.0
 30
0.0
  9
$USERI1
 70
     0
  9
$USERI2
 70
     0
  9
$USERI3
 70
     0
  9
$USERI4
 70
     0
  9
$USERI5
 70
     0
  9
$USERR1
 40
0.0
  9
$USERR2
 40
0.0
  9
$USERR3
 40
0.0
  9
$USERR4
 40
0.0
  9
$USERR5
 40
0.0
  9
$WORLDVIEW
 70
     1
  9
$SHADEDGE
 70
     3
  9
$SHADEDIF
 70
    70
  9
$TILEMODE
 70
     1
  9
$MAXACTVP
 70
    16
  9
$PINSBASE
 10
-4.981388
 20
50.0
 30
0.013548
  9
$PLIMCHECK
 70
     0
  9
$PEXTMIN
 10
1.000000E+20
 20
1.000000E+20
 30
1.000000E+20
  9
$PEXTMAX
 10
-1.000000E+20
 20
-1.000000E+20
 30
-1.000000E+20
  9
$PLIMMIN
 10
0.0
 20
0.0
  9
$PLIMMAX
 10
12.0
 20
9.0
  9
$UNITMODE
 70
     0
  9
$VISRETAIN
 70
     0
  9
$PLINEGEN
 70
     0
  9
$PSLTSCALE
 70
     0
  9
$TREEDEPTH
 70
  3020
  9
$DWGCODEPAGE
  3
undefined
  0
ENDSEC
  0
SECTION
  2
TABLES
  0
TABLE
  2
VPORT
 70
     2
  0
VPORT
  2
*ACTIVE
 70
     0
 10
0.0
 20
0.0
 11
1.0
 21
1.0
 12
-0.617433
 22
0.538902
 13
0.0
 23
0.0
 14
0.125
 24
0.125
 15
0.0
 25
0.0
 16
0.0
 26
0.0
 36
1.0
 17
0.0
 27
0.0
 37
0.0
 40
12.184377
 41
1.382567
 42
50.0
 43
0.0
 44
0.0
 50
0.0
 51
0.0
 71
     0
 72
   100
 73
     1
 74
     0
 75
     0
 76
     0
 77
     0
 78
     0
  0
ENDTAB
  0
TABLE
  2
LTYPE
 70
     3
  0
LTYPE
  2
CONTINUOUS
 70
    64
  3
Solid line
 72
    65
 73
     0
 40
0.0
  0
LTYPE
  2
CENTER
 70
    64
  3
____ _ ____ _ ____ _ ____ _ ____ _ ____ _ ____ 
 72
    65
 73
     4
 40
2.0
 49
1.25
 49
-0.25
 49
0.25
 49
-0.25
  0
LTYPE
  2
HIDDEN
 70
    64
  3
__ __ __ __ __ __ __ __ __ __ __ __ __ __ __ __
 72
    65
 73
     2
 40
0.375
 49
0.25
 49
-0.125
  0
ENDTAB
  0
TABLE
  2
LAYER
 70
    10
  0
LAYER
  2
0
 70
     0
 62
     7
  6
CONTINUOUS
  0
LAYER
  2
HID
 70
    64
 62
    14
  6
HIDDEN
  0
LAYER
  2
CEN
 70
    64
 62
     2
  6
CENTER
  0
LAYER
  2
SHAFT
 70
    64
 62
     1
  6
CONTINUOUS
  0
LAYER
  2
OBJ
 70
    64
 62
     5
  6
CONTINUOUS
  0
LAYER
  2
HOLE
 70
    64
 62
     1
  6
CONTINUOUS
  0
LAYER
  2
HL
 70
    64
 62
    14
  6
HIDDEN
  0
LAYER
  2
CENTER
 70
    64
 62
     2
  6
CENTER
  0
LAYER
  2
DIM
 70
    64
 62
    12
  6
CONTINUOUS
  0
LAYER
  2
CI
 70
    64
 62
     8
  6
CONTINUOUS
  0
ENDTAB
  0
TABLE
  2
STYLE
 70
     1
  0
STYLE
  2
STANDARD
 70
    64
 40
0.0
 41
1.0
 50
0.0
 71
     0
 42
0.2
  3
txt
  4

  0
ENDTAB
  0
TABLE
  2
VIEW
 70
     0
  0
ENDTAB
  0
TABLE
  2
UCS
 70
     0
  0
ENDTAB
  0
TABLE
  2
APPID
 70
     1
  0
APPID
  2
ACAD
 70
    64
  0
ENDTAB
  0
TABLE
  2
DIMSTYLE
 70
     0
  0
ENDTAB
  0
ENDSEC
  0
SECTION
  2
BLOCKS
  0
ENDSEC
  0
SECTION
  2
ENTITIES
  0
TEXT
  8
DIM
 10
-2.646252
 20
-4.419461
 30
0.0
 40
0.4
  1
LINEAR ACTUATOR
  0
LINE
  8
SHAFT
 10
-3.329258
 20
-2.147972
 30
0.0
 11
-1.269258
 21
-2.147972
 31
0.0
  0
LINE
  8
SHAFT
 10
-3.329258
 20
-2.647972
 30
0.0
 11
-1.269258
 21
-2.647972
 31
0.0
  0
LINE
  8
SHAFT
 10
-3.329258
 20
-1.022972
 30
0.0
 11
-1.332258
 21
-1.022972
 31
0.0
  0
LINE
  8
SHAFT
 10
-3.329258
 20
-1.272972
 30
0.0
 11
-1.332258
 21
-1.272972
 31
0.0
  0
LINE
  8
SHAFT
 10
-3.329258
 20
0.352028
 30
0.0
 11
-1.269258
 21
0.352028
 31
0.0
  0
LINE
  8
SHAFT
 10
-3.329258
 20
-0.147972
 30
0.0
 11
-1.269258
 21
-0.147972
 31
0.0
  0
LINE
  8
SHAFT
 10
-3.269258
 20
3.119991
 30
0.0
 11
-1.390924
 21
3.119991
 31
0.0
  0
LINE
  8
SHAFT
 10
-3.269258
 20
3.619991
 30
0.0
 11
-1.269258
 21
3.619991
 31
0.0
  0
LINE
  8
CEN
 10
5.862627
 20
3.369991
 30
0.0
 11
-4.698602
 21
3.369991
 31
0.0
  0
LINE
  8
CEN
 10
5.862627
 20
-1.147972
 30
0.0
 11
-4.698602
 21
-1.147972
 31
0.0
  0
TEXT
  8
DIM
 10
-2.155456
 20
-4.770386
 30
0.0
 40
0.18
  1
3/4" BORE
  0
CIRCLE
  8
CI
 10
-7.306805
 20
-1.147972
 30
0.0
 40
0.142412
  0
POLYLINE
  8
CI
 66
     1
 10
0.0
 20
0.0
 30
0.0
 70
     1
  0
VERTEX
  8
CI
 10
-7.219305
 20
-1.147972
 30
0.0
  0
VERTEX
  8
CI
 10
-7.263055
 20
-1.072194
 30
0.0
  0
VERTEX
  8
CI
 10
-7.350555
 20
-1.072194
 30
0.0
  0
VERTEX
  8
CI
 10
-7.394305
 20
-1.147972
 30
0.0
  0
VERTEX
  8
CI
 10
-7.350555
 20
-1.223749
 30
0.0
  0
VERTEX
  8
CI
 10
-7.263055
 20
-1.223749
 30
0.0
  0
SEQEND
  8
CI
  0
CIRCLE
  8
HOLE
 10
-7.306805
 20
-1.147972
 30
0.0
 40
0.175
  0
POLYLINE
  8
OBJ
 66
     1
 10
0.0
 20
0.0
 30
0.0
 70
     1
  0
VERTEX
  8
OBJ
 10
-7.931805
 20
1.602028
 30
0.0
  0
VERTEX
  8
OBJ
 10
-6.681805
 20
1.602028
 30
0.0
  0
VERTEX
  8
OBJ
 10
-6.681805
 20
-3.022972
 30
0.0
  0
VERTEX
  8
OBJ
 10
-7.931805
 20
-3.022972
 30
0.0
  0
SEQEND
  8
OBJ
  0
POLYLINE
  8
SHAFT
 66
     1
 10
0.0
 20
0.0
 30
0.0
 70
     1
  0
VERTEX
  8
SHAFT
 10
-7.866805
 20
-1.707972
 30
0.0
  0
VERTEX
  8
SHAFT
 10
-7.866805
 20
-0.587972
 30
0.0
  0
VERTEX
  8
SHAFT
 10
-6.746805
 20
-0.587972
 30
0.0
  0
VERTEX
  8
SHAFT
 10
-6.746805
 20
-1.707972
 30
0.0
  0
SEQEND
  8
SHAFT
  0
LINE
  8
OBJ
 10
-7.900805
 20
-2.960472
 30
0.0
 11
-7.900805
 21
1.539528
 31
0.0
  0
LINE
  8
OBJ
 10
-6.712805
 20
-2.960472
 30
0.0
 11
-6.712805
 21
1.539528
 31
0.0
  0
LINE
  8
OBJ
 10
-3.329258
 20
1.539528
 30
0.0
 11
-3.329258
 21
-2.960472
 31
0.0
  0
LINE
  8
OBJ
 10
-4.039258
 20
-0.567972
 30
0.0
 11
-4.039258
 21
-1.727972
 31
0.0
  0
POLYLINE
  8
SHAFT
 66
     1
 10
0.0
 20
0.0
 30
0.0
 70
     1
  0
VERTEX
  8
SHAFT
 10
-4.289258
 20
-1.707972
 30
0.0
  0
VERTEX
  8
SHAFT
 10
-4.289258
 20
-0.587972
 30
0.0
  0
VERTEX
  8
SHAFT
 10
-4.039258
 20
-0.587972
 30
0.0
  0
VERTEX
  8
SHAFT
 10
-4.039258
 20
-1.707972
 30
0.0
  0
SEQEND
  8
SHAFT
  0
LINE
  8
CEN
 10
-7.306805
 20
-2.580972
 30
0.0
 11
-7.306805
 21
-3.168681
 31
0.0
  0
LINE
  8
OBJ
 10
-6.712805
 20
-2.960472
 30
0.0
 11
-7.900805
 21
-2.960472
 31
0.0
  0
LINE
  8
OBJ
 10
-6.712805
 20
-1.727972
 30
0.0
 11
-7.900805
 21
-1.727972
 31
0.0
  0
CIRCLE
  8
CI
 10
-6.931805
 20
-1.897972
 30
0.0
 40
0.09375
  0
LINE
  8
CEN
 10
-6.931805
 20
-1.987972
 30
0.0
 11
-6.931805
 21
-1.807972
 31
0.0
  0
CIRCLE
  8
HL
 10
-7.306805
 20
-1.897972
 30
0.0
 40
0.125
  0
CIRCLE
  8
CI
 10
-7.306805
 20
-1.897972
 30
0.0
 40
0.09375
  0
LINE
  8
CEN
 10
-7.306805
 20
-1.987972
 30
0.0
 11
-7.306805
 21
-1.807972
 31
0.0
  0
LINE
  8
CEN
 10
-7.396805
 20
-2.400972
 30
0.0
 11
-7.216805
 21
-2.400972
 31
0.0
  0
CIRCLE
  8
OBJ
 10
-7.306805
 20
-2.397972
 30
0.0
 40
0.2495
  0
LINE
  8
CEN
 10
-7.486805
 20
-2.400972
 30
0.0
 11
-7.646805
 21
-2.400972
 31
0.0
  0
LINE
  8
CEN
 10
-7.306805
 20
-2.490972
 30
0.0
 11
-7.306805
 21
-2.310972
 31
0.0
  0
LINE
  8
CEN
 10
-7.306805
 20
-2.220972
 30
0.0
 11
-7.306805
 21
-2.060972
 31
0.0
  0
LINE
  8
CEN
 10
-7.126805
 20
-2.400972
 30
0.0
 11
-6.966805
 21
-2.400972
 31
0.0
  0
LINE
  8
CEN
 10
-7.216805
 20
-1.897972
 30
0.0
 11
-7.396805
 21
-1.897972
 31
0.0
  0
CIRCLE
  8
HOLE
 10
-6.994805
 20
-1.459972
 30
0.0
 40
0.15625
  0
CIRCLE
  8
CI
 10
-6.994805
 20
-1.459972
 30
0.0
 40
0.138272
  0
LINE
  8
CEN
 10
-6.841805
 20
-1.897972
 30
0.0
 11
-7.021805
 21
-1.897972
 31
0.0
  0
POLYLINE
  8
CI
 66
     1
 10
0.0
 20
0.0
 30
0.0
 70
     1
  0
VERTEX
  8
CI
 10
-6.994805
 20
-1.409972
 30
0.0
  0
VERTEX
  8
CI
 10
-6.951504
 20
-1.434972
 30
0.0
  0
VERTEX
  8
CI
 10
-6.951504
 20
-1.484972
 30
0.0
  0
VERTEX
  8
CI
 10
-6.994805
 20
-1.509972
 30
0.0
  0
VERTEX
  8
CI
 10
-7.038107
 20
-1.484972
 30
0.0
  0
VERTEX
  8
CI
 10
-7.038107
 20
-1.434972
 30
0.0
  0
SEQEND
  8
CI
  0
TEXT
  8
DIM
 10
-5.948671
 20
-4.42574
 30
0.0
 40
0.4
  1
LA-2-2
  0
LINE
  8
OBJ
 10
-4.329258
 20
-2.960472
 30
0.0
 11
-3.329258
 21
-2.960472
 31
0.0
  0
LINE
  8
OBJ
 10
-4.329258
 20
-1.727972
 30
0.0
 11
-4.039258
 21
-1.727972
 31
0.0
  0
LINE
  8
OBJ
 10
-4.329258
 20
-1.727972
 30
0.0
 11
-4.329258
 21
-2.960472
 31
0.0
  0
CIRCLE
  8
CI
 10
-3.829258
 20
-1.897972
 30
0.0
 40
0.09375
  0
CIRCLE
  8
HL
 10
-3.829258
 20
-1.897972
 30
0.0
 40
0.125
  0
LINE
  8
CEN
 10
-3.829258
 20
-1.987972
 30
0.0
 11
-3.829258
 21
-1.807972
 31
0.0
  0
LINE
  8
CEN
 10
-3.739258
 20
-1.897972
 30
0.0
 11
-3.919258
 21
-1.897972
 31
0.0
  0
LINE
  8
CEN
 10
-7.306805
 20
0.282028
 30
0.0
 11
-7.306805
 21
1.684488
 31
0.0
  0
CIRCLE
  8
OBJ
 10
-7.306805
 20
0.102028
 30
0.0
 40
0.2495
  0
LINE
  8
OBJ
 10
-6.712805
 20
-0.567972
 30
0.0
 11
-7.900805
 21
-0.567972
 31
0.0
  0
CIRCLE
  8
HL
 10
-7.306805
 20
-0.397972
 30
0.0
 40
0.125
  0
LINE
  8
CEN
 10
-7.681805
 20
-0.487972
 30
0.0
 11
-7.681805
 21
-0.307972
 31
0.0
  0
CIRCLE
  8
CI
 10
-7.306805
 20
-0.397972
 30
0.0
 40
0.09375
  0
LINE
  8
CEN
 10
-7.306805
 20
-0.487972
 30
0.0
 11
-7.306805
 21
-0.307972
 31
0.0
  0
CIRCLE
  8
CI
 10
-7.681805
 20
-0.397972
 30
0.0
 40
0.09375
  0
POLYLINE
  8
CI
 66
     1
 10
0.0
 20
0.0
 30
0.0
 70
     1
  0
VERTEX
  8
CI
 10
-7.618805
 20
-0.785972
 30
0.0
  0
VERTEX
  8
CI
 10
-7.575504
 20
-0.810972
 30
0.0
  0
VERTEX
  8
CI
 10
-7.575504
 20
-0.860972
 30
0.0
  0
VERTEX
  8
CI
 10
-7.618805
 20
-0.885972
 30
0.0
  0
VERTEX
  8
CI
 10
-7.662107
 20
-0.860972
 30
0.0
  0
VERTEX
  8
CI
 10
-7.662107
 20
-0.810972
 30
0.0
  0
SEQEND
  8
CI
  0
CIRCLE
  8
HOLE
 10
-7.618805
 20
-0.835972
 30
0.0
 40
0.15625
  0
CIRCLE
  8
CI
 10
-7.618805
 20
-0.835972
 30
0.0
 40
0.138272
  0
LINE
  8
CEN
 10
-7.396805
 20
0.102028
 30
0.0
 11
-7.216805
 21
0.102028
 31
0.0
  0
LINE
  8
CEN
 10
-7.216805
 20
-0.397972
 30
0.0
 11
-7.396805
 21
-0.397972
 31
0.0
  0
LINE
  8
CEN
 10
-7.306805
 20
-0.077972
 30
0.0
 11
-7.306805
 21
-0.237972
 31
0.0
  0
LINE
  8
CEN
 10
-7.591805
 20
-0.397972
 30
0.0
 11
-7.771805
 21
-0.397972
 31
0.0
  0
LINE
  8
CEN
 10
-7.486805
 20
0.102028
 30
0.0
 11
-7.646805
 21
0.102028
 31
0.0
  0
LINE
  8
CEN
 10
-7.306805
 20
0.012028
 30
0.0
 11
-7.306805
 21
0.192028
 31
0.0
  0
LINE
  8
CEN
 10
-7.126805
 20
0.102028
 30
0.0
 11
-6.966805
 21
0.102028
 31
0.0
  0
LINE
  8
OBJ
 10
-6.712805
 20
1.539528
 30
0.0
 11
-7.900805
 21
1.539528
 31
0.0
  0
LINE
  8
OBJ
 10
-4.329258
 20
-0.567972
 30
0.0
 11
-4.039258
 21
-0.567972
 31
0.0
  0
LINE
  8
OBJ
 10
-4.329258
 20
1.539528
 30
0.0
 11
-3.329258
 21
1.539528
 31
0.0
  0
LINE
  8
OBJ
 10
-4.329258
 20
1.539528
 30
0.0
 11
-4.329258
 21
-0.567972
 31
0.0
  0
CIRCLE
  8
HL
 10
-3.829258
 20
-0.397972
 30
0.0
 40
0.125
  0
CIRCLE
  8
CI
 10
-3.829258
 20
-0.397972
 30
0.0
 40
0.09375
  0
LINE
  8
CEN
 10
-3.829258
 20
-0.487972
 30
0.0
 11
-3.829258
 21
-0.307972
 31
0.0
  0
LINE
  8
CEN
 10
-3.739258
 20
-0.397972
 30
0.0
 11
-3.919258
 21
-0.397972
 31
0.0
  0
LINE
  8
CI
 10
-3.269258
 20
1.477028
 30
0.0
 11
-3.269258
 21
1.227028
 31
0.0
  0
LINE
  8
CI
 10
-3.329258
 20
1.227028
 30
0.0
 11
-3.269258
 21
1.227028
 31
0.0
  0
LINE
  8
CI
 10
-3.329258
 20
1.477028
 30
0.0
 11
-3.269258
 21
1.477028
 31
0.0
  0
LINE
  8
OBJ
 10
-3.329258
 20
2.775991
 30
0.0
 11
-4.329258
 21
2.775991
 31
0.0
  0
LINE
  8
OBJ
 10
-3.329258
 20
3.963991
 30
0.0
 11
-4.329258
 21
3.963991
 31
0.0
  0
LINE
  8
OBJ
 10
-4.329258
 20
2.775991
 30
0.0
 11
-4.329258
 21
3.963991
 31
0.0
  0
LINE
  8
OBJ
 10
-3.329258
 20
2.775991
 30
0.0
 11
-3.329258
 21
3.963991
 31
0.0
  0
LINE
  8
CI
 10
-3.269258
 20
3.184991
 30
0.0
 11
-3.269258
 21
2.934991
 31
0.0
  0
LINE
  8
CI
 10
-3.329258
 20
2.934991
 30
0.0
 11
-3.269258
 21
2.934991
 31
0.0
  0
LINE
  8
CI
 10
-3.329258
 20
3.184991
 30
0.0
 11
-3.269258
 21
3.184991
 31
0.0
  0
LINE
  8
CI
 10
-3.269258
 20
3.804991
 30
0.0
 11
-3.269258
 21
3.554991
 31
0.0
  0
LINE
  8
CI
 10
-3.329258
 20
3.554991
 30
0.0
 11
-3.269258
 21
3.554991
 31
0.0
  0
LINE
  8
CI
 10
-3.329258
 20
3.804991
 30
0.0
 11
-3.269258
 21
3.804991
 31
0.0
  0
LINE
  8
SHAFT
 10
5.670742
 20
-1.397972
 30
0.0
 11
5.670742
 21
-0.897972
 31
0.0
  0
LINE
  8
OBJ
 10
3.790742
 20
-2.959972
 30
0.0
 11
3.790742
 21
-1.152972
 31
0.0
  0
CIRCLE
  8
CI
 10
-0.394258
 20
-1.152972
 30
0.0
 40
0.0726
  0
CIRCLE
  8
HID
 10
-0.394258
 20
-1.152972
 30
0.0
 40
0.09455
  0
ARC
  8
CI
 10
-1.593508
 20
-1.152972
 30
0.0
 40
0.63625
 50
334.391468
 51
25.608532
  0
ARC
  8
CI
 10
-0.696008
 20
-1.152972
 30
0.0
 40
0.63625
 50
154.391468
 51
205.608532
  0
LINE
  8
CI
 10
-1.332258
 20
-1.565472
 30
0.0
 11
-1.332258
 21
-0.740472
 31
0.0
  0
CIRCLE
  8
OBJ
 10
-0.394258
 20
-1.152972
 30
0.0
 40
0.28125
  0
POLYLINE
  8
CI
 66
     1
 10
0.0
 20
0.0
 30
0.0
 70
     1
  0
VERTEX
  8
CI
 10
-0.610764
 20
-1.027972
 30
0.0
 50
30.0
  0
VERTEX
  8
CI
 10
-0.610764
 20
-1.277972
 30
0.0
 50
30.0
  0
VERTEX
  8
CI
 10
-0.394258
 20
-1.402972
 30
0.0
 50
30.0
  0
VERTEX
  8
CI
 10
-0.177751
 20
-1.277972
 30
0.0
 50
30.0
  0
VERTEX
  8
CI
 10
-0.177751
 20
-1.027972
 30
0.0
 50
30.0
  0
VERTEX
  8
CI
 10
-0.394258
 20
-0.902972
 30
0.0
 50
30.0
  0
SEQEND
  8
CI
  0
LINE
  8
OBJ
 10
-0.957258
 20
-1.793972
 30
0.0
 11
-0.957258
 21
-0.511972
 31
0.0
  0
LINE
  8
OBJ
 10
2.730742
 20
-3.022972
 30
0.0
 11
2.730742
 21
0.977028
 31
0.0
  0
LINE
  8
OBJ
 10
2.790742
 20
0.977028
 30
0.0
 11
2.790742
 21
-2.959972
 31
0.0
  0
LINE
  8
OBJ
 10
2.790742
 20
-2.959972
 30
0.0
 11
3.790742
 21
-2.959972
 31
0.0
  0
LINE
  8
OBJ
 10
2.730742
 20
-3.022972
 30
0.0
 11
-1.269258
 21
-3.022972
 31
0.0
  0
LINE
  8
OBJ
 10
-1.269258
 20
-3.022972
 30
0.0
 11
-1.269258
 21
-1.793972
 31
0.0
  0
LINE
  8
CENTER
 10
-0.679258
 20
-1.840472
 30
0.0
 11
-0.859258
 21
-1.840472
 31
0.0
  0
CIRCLE
  8
HID
 10
-0.769258
 20
-1.840472
 30
0.0
 40
0.125
  0
CIRCLE
  8
CI
 10
-0.769258
 20
-1.840472
 30
0.0
 40
0.1005
  0
LINE
  8
CENTER
 10
-0.769258
 20
-1.745472
 30
0.0
 11
-0.769258
 21
-1.925472
 31
0.0
  0
LINE
  8
CI
 10
-1.332258
 20
-1.565472
 30
0.0
 11
-1.282258
 21
-1.615472
 31
0.0
  0
ARC
  8
CI
 10
-0.696008
 20
-1.702972
 30
0.0
 40
0.63625
 50
154.391468
 51
168.662096
  0
ARC
  8
CI
 10
-1.593508
 20
-1.702972
 30
0.0
 40
0.63625
 50
11.337904
 51
25.608532
  0
LINE
  8
OBJ
 10
-0.957258
 20
-1.793972
 30
0.0
 11
-1.269258
 21
-1.793972
 31
0.0
  0
LINE
  8
CI
 10
-1.007258
 20
-1.615472
 30
0.0
 11
-1.282258
 21
-1.615472
 31
0.0
  0
LINE
  8
CI
 10
-0.957258
 20
-1.565472
 30
0.0
 11
-1.007258
 21
-1.615472
 31
0.0
  0
LINE
  8
CI
 10
-1.269758
 20
-1.427972
 30
0.0
 11
-1.019758
 21
-1.427972
 31
0.0
  0
CIRCLE
  8
CI
 10
0.730742
 20
-1.840472
 30
0.0
 40
0.0945
  0
LINE
  8
CENTER
 10
0.730742
 20
-1.750472
 30
0.0
 11
0.730742
 21
-1.930472
 31
0.0
  0
LINE
  8
CENTER
 10
0.820742
 20
-1.840472
 30
0.0
 11
0.640742
 21
-1.840472
 31
0.0
  0
CIRCLE
  8
HID
 10
2.230742
 20
-1.840472
 30
0.0
 40
0.125
  0
CIRCLE
  8
CI
 10
2.230742
 20
-1.840472
 30
0.0
 40
0.1005
  0
LINE
  8
CENTER
 10
2.230742
 20
-1.750472
 30
0.0
 11
2.230742
 21
-1.930472
 31
0.0
  0
LINE
  8
SHAFT
 10
2.730742
 20
-2.642972
 30
0.0
 11
2.790742
 21
-2.642972
 31
0.0
  0
LINE
  8
SHAFT
 10
2.730742
 20
-2.142972
 30
0.0
 11
2.790742
 21
-2.142972
 31
0.0
  0
LINE
  8
CENTER
 10
2.320742
 20
-1.840472
 30
0.0
 11
2.140742
 21
-1.840472
 31
0.0
  0
LINE
  8
SHAFT
 10
2.790742
 20
-1.642972
 30
0.0
 11
2.730742
 21
-1.642972
 31
0.0
  0
LINE
  8
SHAFT
 10
5.670742
 20
-1.272972
 30
0.0
 11
3.790742
 21
-1.272972
 31
0.0
  0
LINE
  8
SHAFT
 10
3.790742
 20
-1.397972
 30
0.0
 11
5.670742
 21
-1.397972
 31
0.0
  0
CIRCLE
  8
HL
 10
3.290742
 20
-1.897972
 30
0.0
 40
0.125
  0
CIRCLE
  8
CI
 10
3.290742
 20
-1.897972
 30
0.0
 40
0.09375
  0
LINE
  8
CEN
 10
3.290742
 20
-1.987972
 30
0.0
 11
3.290742
 21
-1.807972
 31
0.0
  0
LINE
  8
CEN
 10
3.380742
 20
-1.897972
 30
0.0
 11
3.200742
 21
-1.897972
 31
0.0
  0
LINE
  8
OBJ
 10
3.790742
 20
0.977028
 30
0.0
 11
2.790742
 21
0.977028
 31
0.0
  0
LINE
  8
OBJ
 10
3.790742
 20
2.775991
 30
0.0
 11
2.790742
 21
2.775991
 31
0.0
  0
LINE
  8
OBJ
 10
3.790742
 20
3.963991
 30
0.0
 11
2.790742
 21
3.963991
 31
0.0
  0
LINE
  8
CI
 10
0.314076
 20
1.523528
 30
0.0
 11
0.501576
 21
1.523528
 31
0.0
  0
LINE
  8
CI
 10
0.314076
 20
1.180528
 30
0.0
 11
0.501576
 21
1.180528
 31
0.0
  0
LINE
  8
OBJ
 10
2.730742
 20
0.977028
 30
0.0
 11
-0.644258
 21
0.977028
 31
0.0
  0
LINE
  8
OBJ
 10
-1.269258
 20
-0.511972
 30
0.0
 11
-1.269258
 21
1.602028
 31
0.0
  0
LINE
  8
CENTER
 10
-0.679258
 20
-0.465472
 30
0.0
 11
-0.859258
 21
-0.465472
 31
0.0
  0
CIRCLE
  8
CI
 10
-0.769258
 20
-0.465472
 30
0.0
 40
0.1005
  0
CIRCLE
  8
HID
 10
-0.769258
 20
-0.465472
 30
0.0
 40
0.125
  0
LINE
  8
CENTER
 10
-0.769258
 20
-0.375472
 30
0.0
 11
-0.769258
 21
-0.555472
 31
0.0
  0
ARC
  8
CI
 10
-0.696008
 20
-0.602972
 30
0.0
 40
0.63625
 50
191.337904
 51
205.608532
  0
LINE
  8
CI
 10
-1.282258
 20
-0.690472
 30
0.0
 11
-1.332258
 21
-0.740472
 31
0.0
  0
ARC
  8
CI
 10
-1.593508
 20
-0.602972
 30
0.0
 40
0.63625
 50
334.391468
 51
348.662096
  0
LINE
  8
CI
 10
-1.269758
 20
-0.877972
 30
0.0
 11
-1.019758
 21
-0.877972
 31
0.0
  0
LINE
  8
CI
 10
-1.007258
 20
-0.690472
 30
0.0
 11
-1.282258
 21
-0.690472
 31
0.0
  0
LINE
  8
OBJ
 10
-0.957258
 20
-0.511972
 30
0.0
 11
-1.269258
 21
-0.511972
 31
0.0
  0
LINE
  8
CI
 10
-1.218678
 20
-0.690866
 30
0.0
 11
-1.070838
 21
-0.690866
 31
0.0
  0
LINE
  8
CI
 10
-1.007258
 20
-0.690472
 30
0.0
 11
-0.957258
 21
-0.740472
 31
0.0
  0
LINE
  8
OBJ
 10
-0.644258
 20
1.602028
 30
0.0
 11
-1.269258
 21
1.602028
 31
0.0
  0
LINE
  8
CI
 10
-1.370924
 20
1.462028
 30
0.0
 11
-1.310924
 21
1.462028
 31
0.0
  0
LINE
  8
CI
 10
-1.370924
 20
1.242028
 30
0.0
 11
-1.310924
 21
1.242028
 31
0.0
  0
LINE
  8
CI
 10
-1.390924
 20
1.442028
 30
0.0
 11
-1.390924
 21
1.262028
 31
0.0
  0
ARC
  8
CI
 10
-1.370924
 20
1.262028
 30
0.0
 40
0.02
 50
180.0
 51
270.0
  0
ARC
  8
CI
 10
-1.370924
 20
1.442028
 30
0.0
 40
0.02
 50
90.0
 51
180.0
  0
LINE
  8
CI
 10
-1.310924
 20
1.220978
 30
0.0
 11
-1.310924
 21
1.483078
 31
0.0
  0
POLYLINE
  8
CI
 66
     1
 10
0.0
 20
0.0
 30
0.0
  0
VERTEX
  8
CI
 10
-1.269258
 20
1.195778
 30
0.0
  0
VERTEX
  8
CI
 10
-1.269258
 20
1.508278
 30
0.0
  0
SEQEND
  8
CI
  0
LINE
  8
CI
 10
-1.285724
 20
1.195778
 30
0.0
 11
-1.310924
 21
1.220978
 31
0.0
  0
LINE
  8
CI
 10
-1.285724
 20
1.195778
 30
0.0
 11
-1.269258
 21
1.195778
 31
0.0
  0
LINE
  8
CI
 10
-1.285724
 20
1.508278
 30
0.0
 11
-1.269258
 21
1.508278
 31
0.0
  0
LINE
  8
CI
 10
-1.310924
 20
1.483078
 30
0.0
 11
-1.285724
 21
1.508278
 31
0.0
  0
LINE
  8
OBJ
 10
-0.644258
 20
0.977028
 30
0.0
 11
-0.644258
 21
1.602028
 31
0.0
  0
LINE
  8
CI
 10
-0.534258
 20
1.508278
 30
0.0
 11
0.314076
 21
1.508278
 31
0.0
  0
LINE
  8
CI
 10
-0.534258
 20
1.195778
 30
0.0
 11
0.314076
 21
1.195778
 31
0.0
  0
POLYLINE
  8
CI
 66
     1
 10
0.0
 20
0.0
 30
0.0
 40
0.00375
 41
0.00375
  0
VERTEX
  8
CI
 10
-0.144258
 20
1.253741
 30
0.0
  0
VERTEX
  8
CI
 10
-0.144258
 20
1.450316
 30
0.0
  0
SEQEND
  8
CI
  0
ARC
  8
CI
 10
-0.764219
 20
1.352028
 30
0.0
 40
0.229961
 50
335.927314
 51
24.072686
  0
POLYLINE
  8
CI
 66
     1
 10
0.0
 20
0.0
 30
0.0
 40
0.00375
 41
0.00375
  0
VERTEX
  8
CI
 10
-0.477591
 20
1.253741
 30
0.0
  0
VERTEX
  8
CI
 10
-0.477591
 20
1.450316
 30
0.0
  0
SEQEND
  8
CI
  0
POLYLINE
  8
CI
 66
     1
 10
0.0
 20
0.0
 30
0.0
 40
0.00375
 41
0.00375
  0
VERTEX
  8
CI
 10
-0.310924
 20
1.253741
 30
0.0
  0
VERTEX
  8
CI
 10
-0.310924
 20
1.450316
 30
0.0
  0
SEQEND
  8
CI
  0
LINE
  8
CI
 10
-0.534258
 20
1.195678
 30
0.0
 11
-0.534258
 21
1.508378
 31
0.0
  0
LINE
  8
CI
 10
-0.534258
 20
1.195678
 30
0.0
 11
-0.534258
 21
1.508378
 31
0.0
  0
POLYLINE
  8
CI
 66
     1
 10
0.0
 20
0.0
 30
0.0
  0
VERTEX
  8
CI
 10
-0.394258
 20
1.195778
 30
0.0
  0
VERTEX
  8
CI
 10
-0.394258
 20
1.508278
 30
0.0
  0
SEQEND
  8
CI
  0
POLYLINE
  8
CI
 66
     1
 10
0.0
 20
0.0
 30
0.0
  0
VERTEX
  8
CI
 10
-0.227591
 20
1.195778
 30
0.0
  0
VERTEX
  8
CI
 10
-0.227591
 20
1.508278
 30
0.0
  0
SEQEND
  8
CI
  0
ARC
  8
CI
 10
-0.414297
 20
1.352028
 30
0.0
 40
0.229961
 50
155.927314
 51
204.072686
  0
LINE
  8
CI
 10
-0.644258
 20
1.195778
 30
0.0
 11
-0.644258
 21
1.508278
 31
0.0
  0
LINE
  8
CI
 10
-0.644258
 20
1.195778
 30
0.0
 11
-0.644258
 21
1.508278
 31
0.0
  0
LINE
  8
CI
 10
-0.644258
 20
1.195778
 30
0.0
 11
-0.644258
 21
1.508378
 31
0.0
  0
ARC
  8
CI
 10
-0.641914
 20
1.195728
 30
0.0
 40
0.107656
 50
324.510637
 51
35.489363
  0
ARC
  8
CI
 10
-0.536602
 20
1.195728
 30
0.0
 40
0.107656
 50
144.510637
 51
215.489363
  0
LINE
  8
CI
 10
-0.624258
 20
1.133228
 30
0.0
 11
-0.554258
 21
1.133228
 31
0.0
  0
LINE
  8
CI
 10
-0.624258
 20
1.258228
 30
0.0
 11
-0.554258
 21
1.258228
 31
0.0
  0
LINE
  8
CI
 10
-0.624258
 20
1.445828
 30
0.0
 11
-0.554258
 21
1.445828
 31
0.0
  0
LINE
  8
CI
 10
-0.624258
 20
1.570828
 30
0.0
 11
-0.554258
 21
1.570828
 31
0.0
  0
ARC
  8
CI
 10
-0.536602
 20
1.508328
 30
0.0
 40
0.107656
 50
144.510637
 51
215.489363
  0
ARC
  8
CI
 10
-0.641914
 20
1.508328
 30
0.0
 40
0.107656
 50
324.510637
 51
35.489363
  0
POLYLINE
  8
CI
 66
     1
 10
0.0
 20
0.0
 30
0.0
 40
0.00375
 41
0.00375
  0
VERTEX
  8
CI
 10
0.022409
 20
1.253741
 30
0.0
  0
VERTEX
  8
CI
 10
0.022409
 20
1.450316
 30
0.0
  0
SEQEND
  8
CI
  0
POLYLINE
  8
CI
 66
     1
 10
0.0
 20
0.0
 30
0.0
 40
0.00375
 41
0.00375
  0
VERTEX
  8
CI
 10
0.189076
 20
1.253741
 30
0.0
  0
VERTEX
  8
CI
 10
0.189076
 20
1.450316
 30
0.0
  0
SEQEND
  8
CI
  0
POLYLINE
  8
CI
 66
     1
 10
0.0
 20
0.0
 30
0.0
  0
VERTEX
  8
CI
 10
-0.060924
 20
1.195778
 30
0.0
  0
VERTEX
  8
CI
 10
-0.060924
 20
1.508278
 30
0.0
  0
SEQEND
  8
CI
  0
POLYLINE
  8
CI
 66
     1
 10
0.0
 20
0.0
 30
0.0
  0
VERTEX
  8
CI
 10
0.105742
 20
1.195778
 30
0.0
  0
VERTEX
  8
CI
 10
0.105742
 20
1.508278
 30
0.0
  0
SEQEND
  8
CI
  0
LINE
  8
CI
 10
0.314076
 20
1.180528
 30
0.0
 11
0.314076
 21
1.523528
 31
0.0
  0
POLYLINE
  8
CI
 66
     1
 10
0.0
 20
0.0
 30
0.0
  0
VERTEX
  8
CI
 10
0.272409
 20
1.195778
 30
0.0
  0
VERTEX
  8
CI
 10
0.272409
 20
1.508278
 30
0.0
  0
SEQEND
  8
CI
  0
CIRCLE
  8
CI
 10
0.730742
 20
-0.465472
 30
0.0
 40
0.0945
  0
LINE
  8
CENTER
 10
0.730742
 20
-0.375472
 30
0.0
 11
0.730742
 21
-0.555472
 31
0.0
  0
LINE
  8
CENTER
 10
0.820742
 20
-0.465472
 30
0.0
 11
0.640742
 21
-0.465472
 31
0.0
  0
CIRCLE
  8
CI
 10
2.230742
 20
-0.465472
 30
0.0
 40
0.1005
  0
LINE
  8
CENTER
 10
2.230742
 20
-0.375472
 30
0.0
 11
2.230742
 21
-0.555472
 31
0.0
  0
CIRCLE
  8
HID
 10
2.230742
 20
-0.465472
 30
0.0
 40
0.125
  0
LINE
  8
CENTER
 10
2.320742
 20
-0.465472
 30
0.0
 11
2.140742
 21
-0.465472
 31
0.0
  0
LINE
  8
SHAFT
 10
2.790742
 20
-0.642972
 30
0.0
 11
2.730742
 21
-0.642972
 31
0.0
  0
LINE
  8
SHAFT
 10
2.730742
 20
-0.142972
 30
0.0
 11
2.790742
 21
-0.142972
 31
0.0
  0
ARC
  8
CI
 10
0.854076
 20
1.394528
 30
0.0
 40
0.02
 50
0.0
 51
90.0
  0
ARC
  8
CI
 10
0.653143
 20
1.352028
 30
0.0
 40
0.160932
 50
331.130789
 51
28.869211
  0
LINE
  8
CI
 10
0.814076
 20
1.227428
 30
0.0
 11
0.814076
 21
1.476628
 31
0.0
  0
LINE
  8
CI
 10
0.626576
 20
1.180528
 30
0.0
 11
0.626576
 21
1.523528
 31
0.0
  0
LINE
  8
CI
 10
0.501576
 20
1.180528
 30
0.0
 11
0.501576
 21
1.523528
 31
0.0
  0
LINE
  8
CI
 10
0.564076
 20
1.180528
 30
0.0
 11
0.564076
 21
1.523528
 31
0.0
  0
LINE
  8
CI
 10
0.532826
 20
1.195828
 30
0.0
 11
0.532826
 21
1.508228
 31
0.0
  0
LINE
  8
CI
 10
0.626576
 20
1.274328
 30
0.0
 11
0.794076
 21
1.274328
 31
0.0
  0
LINE
  8
CI
 10
0.564076
 20
1.180528
 30
0.0
 11
0.794076
 21
1.180528
 31
0.0
  0
LINE
  8
CI
 10
0.532826
 20
1.195828
 30
0.0
 11
0.564076
 21
1.180528
 31
0.0
  0
LINE
  8
CI
 10
0.501576
 20
1.180528
 30
0.0
 11
0.532826
 21
1.195828
 31
0.0
  0
ARC
  8
CI
 10
0.749085
 20
1.227428
 30
0.0
 40
0.06499
 50
313.809396
 51
46.190604
  0
LINE
  8
CI
 10
0.814076
 20
1.289528
 30
0.0
 11
0.854076
 21
1.289528
 31
0.0
  0
ARC
  8
CI
 10
0.854076
 20
1.309528
 30
0.0
 40
0.02
 50
270.0
 51
0.0
  0
LINE
  8
CI
 10
0.857202
 20
1.289528
 30
0.0
 11
0.857202
 21
1.289774
 31
0.0
  0
LINE
  8
CI
 10
0.874076
 20
1.309528
 30
0.0
 11
0.874076
 21
1.394528
 31
0.0
  0
LINE
  8
CI
 10
0.626576
 20
1.429728
 30
0.0
 11
0.794076
 21
1.429728
 31
0.0
  0
LINE
  8
CI
 10
0.564076
 20
1.523528
 30
0.0
 11
0.794076
 21
1.523528
 31
0.0
  0
LINE
  8
CI
 10
0.501576
 20
1.523528
 30
0.0
 11
0.532826
 21
1.508228
 31
0.0
  0
LINE
  8
CI
 10
0.532826
 20
1.508228
 30
0.0
 11
0.564076
 21
1.523528
 31
0.0
  0
LINE
  8
CI
 10
0.814076
 20
1.414528
 30
0.0
 11
0.854076
 21
1.414528
 31
0.0
  0
LINE
  8
CI
 10
0.857202
 20
1.414283
 30
0.0
 11
0.857202
 21
1.414528
 31
0.0
  0
ARC
  8
CI
 10
0.749085
 20
1.476628
 30
0.0
 40
0.06499
 50
313.809396
 51
46.190604
  0
LINE
  8
SHAFT
 10
2.730742
 20
0.357028
 30
0.0
 11
2.790742
 21
0.357028
 31
0.0
  0
LINE
  8
CI
 10
2.730742
 20
0.607028
 30
0.0
 11
2.790742
 21
0.607028
 31
0.0
  0
LINE
  8
CI
 10
2.730742
 20
0.607028
 30
0.0
 11
2.790742
 21
0.607028
 31
0.0
  0
LINE
  8
CI
 10
2.730742
 20
0.857028
 30
0.0
 11
2.790742
 21
0.857028
 31
0.0
  0
LINE
  8
CI
 10
2.730742
 20
0.857028
 30
0.0
 11
2.790742
 21
0.857028
 31
0.0
  0
LINE
  8
CI
 10
0.309076
 20
3.229491
 30
0.0
 11
0.496576
 21
3.229491
 31
0.0
  0
LINE
  8
CI
 10
0.309076
 20
2.886491
 30
0.0
 11
0.496576
 21
2.886491
 31
0.0
  0
LINE
  8
OBJ
 10
-1.269258
 20
2.744991
 30
0.0
 11
2.730742
 21
2.744991
 31
0.0
  0
LINE
  8
OBJ
 10
2.730742
 20
3.994991
 30
0.0
 11
-0.514602
 21
3.994991
 31
0.0
  0
LINE
  8
CI
 10
-0.500815
 20
3.900741
 30
0.0
 11
0.790742
 21
3.900741
 31
0.0
  0
LINE
  8
CI
 10
-0.500815
 20
3.463241
 30
0.0
 11
0.790742
 21
3.463241
 31
0.0
  0
ARC
  8
CI
 10
-0.646914
 20
3.214291
 30
0.0
 40
0.107656
 50
324.510637
 51
35.489363
  0
ARC
  8
CI
 10
-0.541602
 20
3.214291
 30
0.0
 40
0.107656
 50
144.510637
 51
215.489363
  0
LINE
  8
OBJ
 10
-1.269258
 20
2.744991
 30
0.0
 11
-1.269258
 21
3.994991
 31
0.0
  0
LINE
  8
OBJ
 10
-0.649258
 20
2.744991
 30
0.0
 11
-0.649258
 21
3.994991
 31
0.0
  0
LINE
  8
CI
 10
-1.370924
 20
3.167991
 30
0.0
 11
-1.310924
 21
3.167991
 31
0.0
  0
LINE
  8
CI
 10
-1.370924
 20
2.947991
 30
0.0
 11
-1.310924
 21
2.947991
 31
0.0
  0
LINE
  8
CI
 10
-1.390924
 20
3.147991
 30
0.0
 11
-1.390924
 21
2.967991
 31
0.0
  0
ARC
  8
CI
 10
-1.370924
 20
2.967991
 30
0.0
 40
0.02
 50
180.0
 51
270.0
  0
ARC
  8
CI
 10
-1.370924
 20
3.147991
 30
0.0
 40
0.02
 50
90.0
 51
180.0
  0
LINE
  8
CI
 10
-1.310924
 20
2.926941
 30
0.0
 11
-1.310924
 21
3.189041
 31
0.0
  0
LINE
  8
CI
 10
-1.285724
 20
2.901741
 30
0.0
 11
-1.310924
 21
2.926941
 31
0.0
  0
LINE
  8
CI
 10
-1.285724
 20
2.901741
 30
0.0
 11
-1.269258
 21
2.901741
 31
0.0
  0
LINE
  8
CI
 10
-1.310924
 20
3.189041
 30
0.0
 11
-1.285724
 21
3.214241
 31
0.0
  0
LINE
  8
CI
 10
-1.285724
 20
3.214241
 30
0.0
 11
-1.269258
 21
3.214241
 31
0.0
  0
LINE
  8
CI
 10
-0.539258
 20
3.214241
 30
0.0
 11
0.309076
 21
3.214241
 31
0.0
  0
LINE
  8
CI
 10
-0.539258
 20
2.901741
 30
0.0
 11
0.309076
 21
2.901741
 31
0.0
  0
ARC
  8
CI
 10
-0.646914
 20
2.901691
 30
0.0
 40
0.107656
 50
324.510637
 51
35.489363
  0
ARC
  8
CI
 10
-0.541602
 20
2.901691
 30
0.0
 40
0.107656
 50
144.510637
 51
215.489363
  0
LINE
  8
CI
 10
-0.605764
 20
2.699991
 30
0.0
 11
-0.172751
 21
2.699991
 31
0.0
  0
LINE
  8
CI
 10
-0.605764
 20
2.574991
 30
0.0
 11
-0.172751
 21
2.574991
 31
0.0
  0
LINE
  8
CI
 10
-0.605764
 20
2.574991
 30
0.0
 11
-0.605764
 21
2.699991
 31
0.0
  0
LINE
  8
CI
 10
-0.629258
 20
2.839191
 30
0.0
 11
-0.559258
 21
2.839191
 31
0.0
  0
LINE
  8
CI
 10
-0.514258
 20
2.744991
 30
0.0
 11
-0.514258
 21
2.699991
 31
0.0
  0
LINE
  8
CI
 10
-0.389258
 20
2.574991
 30
0.0
 11
-0.389258
 21
2.699991
 31
0.0
  0
LINE
  8
CI
 10
-0.172751
 20
2.574991
 30
0.0
 11
-0.172751
 21
2.699991
 31
0.0
  0
LINE
  8
CI
 10
-0.264258
 20
2.744991
 30
0.0
 11
-0.264258
 21
2.699991
 31
0.0
  0
ARC
  8
CI
 10
-0.769219
 20
3.057991
 30
0.0
 40
0.229961
 50
335.927314
 51
24.072686
  0
LINE
  8
CI
 10
-0.539258
 20
2.901641
 30
0.0
 11
-0.539258
 21
3.214341
 31
0.0
  0
LINE
  8
CI
 10
-0.539258
 20
2.901641
 30
0.0
 11
-0.539258
 21
3.214341
 31
0.0
  0
POLYLINE
  8
CI
 66
     1
 10
0.0
 20
0.0
 30
0.0
 40
0.00375
 41
0.00375
  0
VERTEX
  8
CI
 10
-0.482591
 20
2.959703
 30
0.0
  0
VERTEX
  8
CI
 10
-0.482591
 20
3.156278
 30
0.0
  0
SEQEND
  8
CI
  0
LINE
  8
CI
 10
-0.649258
 20
2.901741
 30
0.0
 11
-0.649258
 21
3.214241
 31
0.0
  0
LINE
  8
CI
 10
-0.649258
 20
2.901741
 30
0.0
 11
-0.649258
 21
3.214241
 31
0.0
  0
LINE
  8
CI
 10
-0.649258
 20
2.901741
 30
0.0
 11
-0.649258
 21
3.214241
 31
0.0
  0
ARC
  8
CI
 10
-0.419297
 20
3.057991
 30
0.0
 40
0.229961
 50
155.927314
 51
204.072686
  0
LINE
  8
CI
 10
-0.629258
 20
2.964191
 30
0.0
 11
-0.559258
 21
2.964191
 31
0.0
  0
LINE
  8
CI
 10
-0.629258
 20
3.151791
 30
0.0
 11
-0.559258
 21
3.151791
 31
0.0
  0
POLYLINE
  8
CI
 66
     1
 10
0.0
 20
0.0
 30
0.0
  0
VERTEX
  8
CI
 10
-0.399258
 20
2.901741
 30
0.0
  0
VERTEX
  8
CI
 10
-0.399258
 20
3.214241
 30
0.0
  0
SEQEND
  8
CI
  0
POLYLINE
  8
CI
 66
     1
 10
0.0
 20
0.0
 30
0.0
  0
VERTEX
  8
CI
 10
-0.232591
 20
2.901741
 30
0.0
  0
VERTEX
  8
CI
 10
-0.232591
 20
3.214241
 30
0.0
  0
SEQEND
  8
CI
  0
POLYLINE
  8
CI
 66
     1
 10
0.0
 20
0.0
 30
0.0
 40
0.00375
 41
0.00375
  0
VERTEX
  8
CI
 10
-0.315924
 20
2.959703
 30
0.0
  0
VERTEX
  8
CI
 10
-0.315924
 20
3.156278
 30
0.0
  0
SEQEND
  8
CI
  0
POLYLINE
  8
CI
 66
     1
 10
0.0
 20
0.0
 30
0.0
 40
0.00375
 41
0.00375
  0
VERTEX
  8
CI
 10
-0.149258
 20
2.959703
 30
0.0
  0
VERTEX
  8
CI
 10
-0.149258
 20
3.156278
 30
0.0
  0
SEQEND
  8
CI
  0
POLYLINE
  8
CI
 66
     1
 10
0.0
 20
0.0
 30
0.0
  0
VERTEX
  8
CI
 10
-0.065924
 20
2.901741
 30
0.0
  0
VERTEX
  8
CI
 10
-0.065924
 20
3.214241
 30
0.0
  0
SEQEND
  8
CI
  0
POLYLINE
  8
CI
 66
     1
 10
0.0
 20
0.0
 30
0.0
  0
VERTEX
  8
CI
 10
0.100742
 20
2.901741
 30
0.0
  0
VERTEX
  8
CI
 10
0.100742
 20
3.214241
 30
0.0
  0
SEQEND
  8
CI
  0
POLYLINE
  8
CI
 66
     1
 10
0.0
 20
0.0
 30
0.0
 40
0.00375
 41
0.00375
  0
VERTEX
  8
CI
 10
0.017409
 20
2.959703
 30
0.0
  0
VERTEX
  8
CI
 10
0.017409
 20
3.156278
 30
0.0
  0
SEQEND
  8
CI
  0
POLYLINE
  8
CI
 66
     1
 10
0.0
 20
0.0
 30
0.0
 40
0.00375
 41
0.00375
  0
VERTEX
  8
CI
 10
0.184076
 20
2.959703
 30
0.0
  0
VERTEX
  8
CI
 10
0.184076
 20
3.156278
 30
0.0
  0
SEQEND
  8
CI
  0
POLYLINE
  8
CI
 66
     1
 10
0.0
 20
0.0
 30
0.0
  0
VERTEX
  8
CI
 10
0.267409
 20
2.901741
 30
0.0
  0
VERTEX
  8
CI
 10
0.267409
 20
3.214241
 30
0.0
  0
SEQEND
  8
CI
  0
LINE
  8
CI
 10
0.309076
 20
2.886491
 30
0.0
 11
0.309076
 21
3.229491
 31
0.0
  0
LINE
  8
OBJ
 10
-1.269258
 20
3.994991
 30
0.0
 11
-0.649258
 21
3.994991
 31
0.0
  0
ARC
  8
CI
 10
-1.309258
 20
3.729491
 30
0.0
 40
0.02
 50
90.0
 51
180.0
  0
ARC
  8
CI
 10
-1.309258
 20
3.634491
 30
0.0
 40
0.02
 50
180.0
 51
270.0
  0
LINE
  8
CI
 10
-1.329258
 20
3.729491
 30
0.0
 11
-1.329258
 21
3.634491
 31
0.0
  0
LINE
  8
CI
 10
-1.309258
 20
3.749491
 30
0.0
 11
-1.269258
 21
3.749491
 31
0.0
  0
LINE
  8
CI
 10
-1.309258
 20
3.614491
 30
0.0
 11
-1.269258
 21
3.614491
 31
0.0
  0
ARC
  8
CI
 10
-0.671767
 20
3.923866
 30
0.0
 40
0.17251
 50
332.136622
 51
27.863378
  0
ARC
  8
CI
 10
-0.476748
 20
3.923866
 30
0.0
 40
0.17251
 50
152.136622
 51
207.863378
  0
ARC
  8
CI
 10
0.010781
 20
3.681991
 30
0.0
 40
0.660039
 50
165.85931
 51
194.14069
  0
LINE
  8
CI
 10
-0.649258
 20
3.923866
 30
0.0
 11
-0.649258
 21
3.440116
 31
0.0
  0
LINE
  8
CI
 10
-0.649258
 20
3.923866
 30
0.0
 11
-0.649258
 21
3.440116
 31
0.0
  0
POLYLINE
  8
CI
 66
     1
 10
0.0
 20
0.0
 30
0.0
 40
0.00375
 41
0.00375
  0
VERTEX
  8
CI
 10
-0.427829
 20
3.535516
 30
0.0
  0
VERTEX
  8
CI
 10
-0.427829
 20
3.828466
 30
0.0
  0
SEQEND
  8
CI
  0
LINE
  8
CI
 10
-0.356401
 20
3.463241
 30
0.0
 11
-0.356401
 21
3.900741
 31
0.0
  0
LINE
  8
CI
 10
-0.499258
 20
3.463241
 30
0.0
 11
-0.499258
 21
3.923866
 31
0.0
  0
ARC
  8
CI
 10
-1.159297
 20
3.681991
 30
0.0
 40
0.660039
 50
345.85931
 51
14.14069
  0
LINE
  8
CI
 10
-0.499258
 20
3.463241
 30
0.0
 11
-0.499258
 21
3.900741
 31
0.0
  0
POLYLINE
  8
CI
 66
     1
 10
0.0
 20
0.0
 30
0.0
 40
0.00375
 41
0.00375
  0
VERTEX
  8
CI
 10
-0.284972
 20
3.535516
 30
0.0
  0
VERTEX
  8
CI
 10
-0.284972
 20
3.828466
 30
0.0
  0
SEQEND
  8
CI
  0
LINE
  8
CI
 10
-0.213543
 20
3.463241
 30
0.0
 11
-0.213543
 21
3.900741
 31
0.0
  0
POLYLINE
  8
CI
 66
     1
 10
0.0
 20
0.0
 30
0.0
 40
0.00375
 41
0.00375
  0
VERTEX
  8
CI
 10
-0.142115
 20
3.535516
 30
0.0
  0
VERTEX
  8
CI
 10
-0.142115
 20
3.828466
 30
0.0
  0
SEQEND
  8
CI
  0
ARC
  8
CI
 10
-0.671767
 20
3.440116
 30
0.0
 40
0.17251
 50
332.136622
 51
27.863378
  0
ARC
  8
CI
 10
-0.476748
 20
3.440116
 30
0.0
 40
0.17251
 50
152.136622
 51
207.863378
  0
LINE
  8
CI
 10
-0.519258
 20
3.359491
 30
0.0
 11
-0.629258
 21
3.359491
 31
0.0
  0
LINE
  8
CI
 10
-0.629258
 20
3.276791
 30
0.0
 11
-0.559258
 21
3.276791
 31
0.0
  0
LINE
  8
CI
 10
-0.519258
 20
3.520741
 30
0.0
 11
-0.629258
 21
3.520741
 31
0.0
  0
LINE
  8
CI
 10
-0.519258
 20
3.843241
 30
0.0
 11
-0.629258
 21
3.843241
 31
0.0
  0
LINE
  8
CI
 10
0.072171
 20
3.463241
 30
0.0
 11
0.072171
 21
3.900741
 31
0.0
  0
LINE
  8
CI
 10
-0.070686
 20
3.463241
 30
0.0
 11
-0.070686
 21
3.900741
 31
0.0
  0
POLYLINE
  8
CI
 66
     1
 10
0.0
 20
0.0
 30
0.0
 40
0.00375
 41
0.00375
  0
VERTEX
  8
CI
 10
0.000742
 20
3.535516
 30
0.0
  0
VERTEX
  8
CI
 10
0.000742
 20
3.828466
 30
0.0
  0
SEQEND
  8
CI
  0
POLYLINE
  8
CI
 66
     1
 10
0.0
 20
0.0
 30
0.0
 40
0.00375
 41
0.00375
  0
VERTEX
  8
CI
 10
0.429314
 20
3.535516
 30
0.0
  0
VERTEX
  8
CI
 10
0.429314
 20
3.828466
 30
0.0
  0
SEQEND
  8
CI
  0
LINE
  8
CI
 10
0.357885
 20
3.463241
 30
0.0
 11
0.357885
 21
3.900741
 31
0.0
  0
LINE
  8
CI
 10
0.215028
 20
3.463241
 30
0.0
 11
0.215028
 21
3.900741
 31
0.0
  0
POLYLINE
  8
CI
 66
     1
 10
0.0
 20
0.0
 30
0.0
 40
0.00375
 41
0.00375
  0
VERTEX
  8
CI
 10
0.143599
 20
3.535516
 30
0.0
  0
VERTEX
  8
CI
 10
0.143599
 20
3.828466
 30
0.0
  0
SEQEND
  8
CI
  0
POLYLINE
  8
CI
 66
     1
 10
0.0
 20
0.0
 30
0.0
 40
0.00375
 41
0.00375
  0
VERTEX
  8
CI
 10
0.286457
 20
3.535516
 30
0.0
  0
VERTEX
  8
CI
 10
0.286457
 20
3.828466
 30
0.0
  0
SEQEND
  8
CI
  0
LINE
  8
CI
 10
-0.519258
 20
4.004491
 30
0.0
 11
-0.629258
 21
4.004491
 31
0.0
  0
LINE
  8
OBJ
 10
-0.633913
 20
3.994991
 30
0.0
 11
-0.649258
 21
3.994991
 31
0.0
  0
LINE
  8
OBJ
 10
2.730742
 20
3.994991
 30
0.0
 11
2.730742
 21
2.744991
 31
0.0
  0
LINE
  8
OBJ
 10
2.790742
 20
2.775991
 30
0.0
 11
2.790742
 21
3.963991
 31
0.0
  0
LINE
  8
CI
 10
0.621576
 20
2.980291
 30
0.0
 11
0.789076
 21
2.980291
 31
0.0
  0
LINE
  8
CI
 10
0.621576
 20
3.135691
 30
0.0
 11
0.789076
 21
3.135691
 31
0.0
  0
LINE
  8
CI
 10
0.559076
 20
3.229491
 30
0.0
 11
0.789076
 21
3.229491
 31
0.0
  0
LINE
  8
CI
 10
0.559076
 20
2.886491
 30
0.0
 11
0.789076
 21
2.886491
 31
0.0
  0
LINE
  8
CI
 10
0.621576
 20
2.886491
 30
0.0
 11
0.621576
 21
3.229491
 31
0.0
  0
LINE
  8
CI
 10
0.527826
 20
2.901791
 30
0.0
 11
0.527826
 21
3.214191
 31
0.0
  0
LINE
  8
CI
 10
0.559076
 20
2.886491
 30
0.0
 11
0.559076
 21
3.229491
 31
0.0
  0
LINE
  8
CI
 10
0.496576
 20
2.886491
 30
0.0
 11
0.496576
 21
3.229491
 31
0.0
  0
LINE
  8
CI
 10
0.496576
 20
2.886491
 30
0.0
 11
0.527826
 21
2.901791
 31
0.0
  0
LINE
  8
CI
 10
0.527826
 20
2.901791
 30
0.0
 11
0.559076
 21
2.886491
 31
0.0
  0
LINE
  8
CI
 10
0.527826
 20
3.214191
 30
0.0
 11
0.559076
 21
3.229491
 31
0.0
  0
LINE
  8
CI
 10
0.496576
 20
3.229491
 30
0.0
 11
0.527826
 21
3.214191
 31
0.0
  0
ARC
  8
CI
 10
0.648143
 20
3.057991
 30
0.0
 40
0.160932
 50
331.130789
 51
28.869211
  0
LINE
  8
CI
 10
0.869076
 20
3.015491
 30
0.0
 11
0.869076
 21
3.100491
 31
0.0
  0
LINE
  8
CI
 10
0.809076
 20
2.933391
 30
0.0
 11
0.809076
 21
3.182591
 31
0.0
  0
LINE
  8
CI
 10
0.809076
 20
2.995491
 30
0.0
 11
0.849076
 21
2.995491
 31
0.0
  0
LINE
  8
CI
 10
0.852202
 20
2.995491
 30
0.0
 11
0.852202
 21
2.995737
 31
0.0
  0
ARC
  8
CI
 10
0.849076
 20
3.015491
 30
0.0
 40
0.02
 50
270.0
 51
0.0
  0
ARC
  8
CI
 10
0.744085
 20
2.933391
 30
0.0
 40
0.06499
 50
313.809396
 51
46.190604
  0
LINE
  8
CI
 10
0.809076
 20
3.120491
 30
0.0
 11
0.849076
 21
3.120491
 31
0.0
  0
ARC
  8
CI
 10
0.849076
 20
3.100491
 30
0.0
 40
0.02
 50
0.0
 51
90.0
  0
LINE
  8
CI
 10
0.852202
 20
3.120245
 30
0.0
 11
0.852202
 21
3.120491
 31
0.0
  0
ARC
  8
CI
 10
0.744085
 20
3.182591
 30
0.0
 40
0.06499
 50
313.809396
 51
46.190604
  0
LINE
  8
CI
 10
2.790742
 20
3.182991
 30
0.0
 11
2.790742
 21
2.932991
 31
0.0
  0
LINE
  8
SHAFT
 10
2.730742
 20
2.869991
 30
0.0
 11
2.790742
 21
2.869991
 31
0.0
  0
LINE
  8
CI
 10
2.730742
 20
2.932991
 30
0.0
 11
2.790742
 21
2.932991
 31
0.0
  0
LINE
  8
CI
 10
2.730742
 20
3.182991
 30
0.0
 11
2.790742
 21
3.182991
 31
0.0
  0
LINE
  8
CI
 10
0.643599
 20
3.463241
 30
0.0
 11
0.643599
 21
3.900741
 31
0.0
  0
POLYLINE
  8
CI
 66
     1
 10
0.0
 20
0.0
 30
0.0
 40
0.00375
 41
0.00375
  0
VERTEX
  8
CI
 10
0.715028
 20
3.535516
 30
0.0
  0
VERTEX
  8
CI
 10
0.715028
 20
3.828466
 30
0.0
  0
SEQEND
  8
CI
  0
LINE
  8
CI
 10
1.050742
 20
3.869491
 30
0.0
 11
1.050742
 21
3.494491
 31
0.0
  0
LINE
  8
CI
 10
0.790742
 20
3.900741
 30
0.0
 11
0.790742
 21
3.494491
 31
0.0
  0
LINE
  8
CI
 10
0.500742
 20
3.463241
 30
0.0
 11
0.500742
 21
3.900741
 31
0.0
  0
POLYLINE
  8
CI
 66
     1
 10
0.0
 20
0.0
 30
0.0
 40
0.00375
 41
0.00375
  0
VERTEX
  8
CI
 10
0.572171
 20
3.535516
 30
0.0
  0
VERTEX
  8
CI
 10
0.572171
 20
3.828466
 30
0.0
  0
SEQEND
  8
CI
  0
LINE
  8
CI
 10
0.821992
 20
3.494491
 30
0.0
 11
1.050742
 21
3.494491
 31
0.0
  0
LINE
  8
CI
 10
0.790742
 20
3.494491
 30
0.0
 11
0.790742
 21
3.463241
 31
0.0
  0
ARC
  8
CI
 10
0.821992
 20
3.463241
 30
0.0
 40
0.03125
 50
90.0
 51
180.0
  0
LINE
  8
CI
 10
0.821992
 20
3.869491
 30
0.0
 11
1.050742
 21
3.869491
 31
0.0
  0
ARC
  8
CI
 10
0.821992
 20
3.900741
 30
0.0
 40
0.03125
 50
180.0
 51
270.0
  0
LINE
  8
CI
 10
2.790742
 20
3.80699
 30
0.0
 11
2.790742
 21
3.55699
 31
0.0
  0
LINE
  8
CI
 10
2.730742
 20
3.55699
 30
0.0
 11
2.790742
 21
3.55699
 31
0.0
  0
LINE
  8
SHAFT
 10
2.730742
 20
3.869991
 30
0.0
 11
2.790742
 21
3.869991
 31
0.0
  0
LINE
  8
CI
 10
2.730742
 20
3.80699
 30
0.0
 11
2.790742
 21
3.80699
 31
0.0
  0
LINE
  8
SHAFT
 10
5.670742
 20
-1.022972
 30
0.0
 11
3.790742
 21
-1.022972
 31
0.0
  0
LINE
  8
SHAFT
 10
3.790742
 20
-0.897972
 30
0.0
 11
5.670742
 21
-0.897972
 31
0.0
  0
LINE
  8
OBJ
 10
3.790742
 20
-1.152972
 30
0.0
 11
3.790742
 21
0.977028
 31
0.0
  0
CIRCLE
  8
HL
 10
3.290742
 20
-0.397972
 30
0.0
 40
0.125
  0
CIRCLE
  8
CI
 10
3.290742
 20
-0.397972
 30
0.0
 40
0.09375
  0
LINE
  8
CEN
 10
3.290742
 20
-0.487972
 30
0.0
 11
3.290742
 21
-0.307972
 31
0.0
  0
LINE
  8
CEN
 10
3.380742
 20
-0.397972
 30
0.0
 11
3.200742
 21
-0.397972
 31
0.0
  0
LINE
  8
CI
 10
3.900742
 20
0.888278
 30
0.0
 11
4.560742
 21
0.888278
 31
0.0
  0
LINE
  8
CI
 10
3.900742
 20
0.575778
 30
0.0
 11
4.560742
 21
0.575778
 31
0.0
  0
ARC
  8
CI
 10
3.670781
 20
0.732028
 30
0.0
 40
0.229961
 50
335.927314
 51
24.072686
  0
LINE
  8
CI
 10
3.790742
 20
0.575778
 30
0.0
 11
3.790742
 21
0.888278
 31
0.0
  0
LINE
  8
CI
 10
3.790742
 20
0.575778
 30
0.0
 11
3.790742
 21
0.888278
 31
0.0
  0
ARC
  8
CI
 10
4.020703
 20
0.732028
 30
0.0
 40
0.229961
 50
155.927314
 51
204.072686
  0
POLYLINE
  8
CI
 66
     1
 10
0.0
 20
0.0
 30
0.0
  0
VERTEX
  8
CI
 10
4.019076
 20
0.575778
 30
0.0
  0
VERTEX
  8
CI
 10
4.019076
 20
0.888278
 30
0.0
  0
SEQEND
  8
CI
  0
LINE
  8
CI
 10
3.900742
 20
0.575678
 30
0.0
 11
3.900742
 21
0.888378
 31
0.0
  0
LINE
  8
CI
 10
3.935742
 20
0.633741
 30
0.0
 11
3.935742
 21
0.830316
 31
0.0
  0
LINE
  8
CI
 10
3.810742
 20
0.638228
 30
0.0
 11
3.880742
 21
0.638228
 31
0.0
  0
LINE
  8
CI
 10
3.810742
 20
0.513228
 30
0.0
 11
3.880742
 21
0.513228
 31
0.0
  0
ARC
  8
CI
 10
3.898398
 20
0.575728
 30
0.0
 40
0.107656
 50
144.510637
 51
215.489363
  0
ARC
  8
CI
 10
3.793086
 20
0.575728
 30
0.0
 40
0.107656
 50
324.510637
 51
35.489363
  0
ARC
  8
CI
 10
3.898398
 20
0.888328
 30
0.0
 40
0.107656
 50
144.510637
 51
215.489363
  0
ARC
  8
CI
 10
3.793086
 20
0.888328
 30
0.0
 40
0.107656
 50
324.510637
 51
35.489363
  0
LINE
  8
CI
 10
3.810742
 20
0.825828
 30
0.0
 11
3.880742
 21
0.825828
 31
0.0
  0
LINE
  8
CI
 10
3.810742
 20
0.950828
 30
0.0
 11
3.880742
 21
0.950828
 31
0.0
  0
LINE
  8
CI
 10
4.560742
 20
0.903528
 30
0.0
 11
4.748242
 21
0.903528
 31
0.0
  0
LINE
  8
CI
 10
4.560742
 20
0.560528
 30
0.0
 11
4.748242
 21
0.560528
 31
0.0
  0
LINE
  8
CI
 10
4.102409
 20
0.633741
 30
0.0
 11
4.102409
 21
0.830316
 31
0.0
  0
POLYLINE
  8
CI
 66
     1
 10
0.0
 20
0.0
 30
0.0
  0
VERTEX
  8
CI
 10
4.352409
 20
0.575778
 30
0.0
  0
VERTEX
  8
CI
 10
4.352409
 20
0.888278
 30
0.0
  0
SEQEND
  8
CI
  0
POLYLINE
  8
CI
 66
     1
 10
0.0
 20
0.0
 30
0.0
  0
VERTEX
  8
CI
 10
4.185742
 20
0.575778
 30
0.0
  0
VERTEX
  8
CI
 10
4.185742
 20
0.888278
 30
0.0
  0
SEQEND
  8
CI
  0
LINE
  8
CI
 10
4.269076
 20
0.633741
 30
0.0
 11
4.269076
 21
0.830316
 31
0.0
  0
LINE
  8
CI
 10
4.560742
 20
0.560528
 30
0.0
 11
4.560742
 21
0.903528
 31
0.0
  0
POLYLINE
  8
CI
 66
     1
 10
0.0
 20
0.0
 30
0.0
  0
VERTEX
  8
CI
 10
4.519076
 20
0.575778
 30
0.0
  0
VERTEX
  8
CI
 10
4.519076
 20
0.888278
 30
0.0
  0
SEQEND
  8
CI
  0
LINE
  8
CI
 10
4.435742
 20
0.633741
 30
0.0
 11
4.435742
 21
0.830316
 31
0.0
  0
LINE
  8
CI
 10
4.748242
 20
0.560528
 30
0.0
 11
4.748242
 21
0.903528
 31
0.0
  0
LINE
  8
CI
 10
4.810742
 20
0.560528
 30
0.0
 11
4.810742
 21
0.903528
 31
0.0
  0
LINE
  8
CI
 10
4.779492
 20
0.575828
 30
0.0
 11
4.779492
 21
0.888228
 31
0.0
  0
LINE
  8
CI
 10
4.873242
 20
0.560528
 30
0.0
 11
4.873242
 21
0.903528
 31
0.0
  0
LINE
  8
CI
 10
5.060742
 20
0.607428
 30
0.0
 11
5.060742
 21
0.856628
 31
0.0
  0
ARC
  8
CI
 10
4.89981
 20
0.732028
 30
0.0
 40
0.160932
 50
331.130789
 51
28.869211
  0
LINE
  8
CI
 10
4.873242
 20
0.654328
 30
0.0
 11
5.040742
 21
0.654328
 31
0.0
  0
LINE
  8
CI
 10
4.810742
 20
0.560528
 30
0.0
 11
5.040742
 21
0.560528
 31
0.0
  0
LINE
  8
CI
 10
4.779492
 20
0.575828
 30
0.0
 11
4.810742
 21
0.560528
 31
0.0
  0
LINE
  8
CI
 10
4.748242
 20
0.560528
 30
0.0
 11
4.779492
 21
0.575828
 31
0.0
  0
ARC
  8
CI
 10
4.995752
 20
0.607428
 30
0.0
 40
0.06499
 50
313.809396
 51
46.190604
  0
LINE
  8
CI
 10
4.810742
 20
0.903528
 30
0.0
 11
5.040742
 21
0.903528
 31
0.0
  0
LINE
  8
CI
 10
4.873242
 20
0.809728
 30
0.0
 11
5.040742
 21
0.809728
 31
0.0
  0
LINE
  8
CI
 10
4.779492
 20
0.888228
 30
0.0
 11
4.810742
 21
0.903528
 31
0.0
  0
LINE
  8
CI
 10
4.748242
 20
0.903528
 30
0.0
 11
4.779492
 21
0.888228
 31
0.0
  0
ARC
  8
CI
 10
4.995752
 20
0.856628
 30
0.0
 40
0.06499
 50
313.809396
 51
46.190604
  0
LINE
  8
SHAFT
 10
5.060742
 20
3.150691
 30
0.0
 11
5.670742
 21
3.150691
 31
0.0
  0
LINE
  8
SHAFT
 10
3.925846
 20
3.369991
 30
0.0
 11
5.670742
 21
3.369991
 31
0.0
  0
LINE
  8
SHAFT
 10
5.170742
 20
3.589291
 30
0.0
 11
5.670742
 21
3.589291
 31
0.0
  0
ARC
  8
CI
 10
3.898398
 20
3.214291
 30
0.0
 40
0.107656
 50
144.510637
 51
215.489363
  0
ARC
  8
CI
 10
3.793086
 20
3.214291
 30
0.0
 40
0.107656
 50
324.510637
 51
35.489363
  0
LINE
  8
OBJ
 10
3.790742
 20
2.775991
 30
0.0
 11
3.790742
 21
3.963991
 31
0.0
  0
LINE
  8
CI
 10
3.900742
 20
2.901741
 30
0.0
 11
4.560742
 21
2.901741
 31
0.0
  0
LINE
  8
CI
 10
3.900742
 20
3.214241
 30
0.0
 11
4.560742
 21
3.214241
 31
0.0
  0
ARC
  8
CI
 10
3.898398
 20
2.901691
 30
0.0
 40
0.107656
 50
144.510637
 51
215.489363
  0
ARC
  8
CI
 10
3.793086
 20
2.901691
 30
0.0
 40
0.107656
 50
324.510637
 51
35.489363
  0
LINE
  8
CI
 10
3.810742
 20
2.839191
 30
0.0
 11
3.880742
 21
2.839191
 31
0.0
  0
LINE
  8
CI
 10
3.790742
 20
2.901741
 30
0.0
 11
3.790742
 21
3.214241
 31
0.0
  0
LINE
  8
CI
 10
3.790742
 20
2.901741
 30
0.0
 11
3.790742
 21
3.214241
 31
0.0
  0
ARC
  8
CI
 10
4.020703
 20
3.057991
 30
0.0
 40
0.229961
 50
155.927314
 51
204.072686
  0
POLYLINE
  8
CI
 66
     1
 10
0.0
 20
0.0
 30
0.0
  0
VERTEX
  8
CI
 10
4.019076
 20
2.901741
 30
0.0
  0
VERTEX
  8
CI
 10
4.019076
 20
3.214241
 30
0.0
  0
SEQEND
  8
CI
  0
LINE
  8
CI
 10
3.900742
 20
2.901641
 30
0.0
 11
3.900742
 21
3.214341
 31
0.0
  0
ARC
  8
CI
 10
3.670781
 20
3.057991
 30
0.0
 40
0.229961
 50
335.927314
 51
24.072686
  0
LINE
  8
CI
 10
3.935742
 20
2.959703
 30
0.0
 11
3.935742
 21
3.156278
 31
0.0
  0
LINE
  8
CI
 10
3.810742
 20
2.964191
 30
0.0
 11
3.880742
 21
2.964191
 31
0.0
  0
LINE
  8
CI
 10
3.810742
 20
3.151791
 30
0.0
 11
3.880742
 21
3.151791
 31
0.0
  0
LINE
  8
CI
 10
4.560742
 20
3.229491
 30
0.0
 11
4.748242
 21
3.229491
 31
0.0
  0
LINE
  8
CI
 10
4.560742
 20
2.886491
 30
0.0
 11
4.748242
 21
2.886491
 31
0.0
  0
POLYLINE
  8
CI
 66
     1
 10
0.0
 20
0.0
 30
0.0
  0
VERTEX
  8
CI
 10
4.352409
 20
2.901741
 30
0.0
  0
VERTEX
  8
CI
 10
4.352409
 20
3.214241
 30
0.0
  0
SEQEND
  8
CI
  0
POLYLINE
  8
CI
 66
     1
 10
0.0
 20
0.0
 30
0.0
 40
0.00375
 41
0.00375
  0
VERTEX
  8
CI
 10
4.269076
 20
2.959703
 30
0.0
  0
VERTEX
  8
CI
 10
4.269076
 20
3.156278
 30
0.0
  0
SEQEND
  8
CI
  0
POLYLINE
  8
CI
 66
     1
 10
0.0
 20
0.0
 30
0.0
  0
VERTEX
  8
CI
 10
4.185742
 20
2.901741
 30
0.0
  0
VERTEX
  8
CI
 10
4.185742
 20
3.214241
 30
0.0
  0
SEQEND
  8
CI
  0
POLYLINE
  8
CI
 66
     1
 10
0.0
 20
0.0
 30
0.0
 40
0.00375
 41
0.00375
  0
VERTEX
  8
CI
 10
4.102409
 20
2.959703
 30
0.0
  0
VERTEX
  8
CI
 10
4.102409
 20
3.156278
 30
0.0
  0
SEQEND
  8
CI
  0
POLYLINE
  8
CI
 66
     1
 10
0.0
 20
0.0
 30
0.0
  0
VERTEX
  8
CI
 10
4.519076
 20
2.901741
 30
0.0
  0
VERTEX
  8
CI
 10
4.519076
 20
3.214241
 30
0.0
  0
SEQEND
  8
CI
  0
POLYLINE
  8
CI
 66
     1
 10
0.0
 20
0.0
 30
0.0
 40
0.00375
 41
0.00375
  0
VERTEX
  8
CI
 10
4.435742
 20
2.959703
 30
0.0
  0
VERTEX
  8
CI
 10
4.435742
 20
3.156278
 30
0.0
  0
SEQEND
  8
CI
  0
LINE
  8
CI
 10
4.560742
 20
2.886491
 30
0.0
 11
4.560742
 21
3.229491
 31
0.0
  0
LINE
  8
CI
 10
4.810742
 20
3.229491
 30
0.0
 11
5.040742
 21
3.229491
 31
0.0
  0
LINE
  8
CI
 10
4.873242
 20
2.980291
 30
0.0
 11
5.040742
 21
2.980291
 31
0.0
  0
LINE
  8
CI
 10
4.873242
 20
3.135691
 30
0.0
 11
5.040742
 21
3.135691
 31
0.0
  0
LINE
  8
CI
 10
4.810742
 20
2.886491
 30
0.0
 11
5.040742
 21
2.886491
 31
0.0
  0
LINE
  8
CI
 10
4.748242
 20
2.886491
 30
0.0
 11
4.748242
 21
3.229491
 31
0.0
  0
LINE
  8
CI
 10
4.810742
 20
2.886491
 30
0.0
 11
4.810742
 21
3.229491
 31
0.0
  0
LINE
  8
CI
 10
4.779492
 20
2.901791
 30
0.0
 11
4.779492
 21
3.214191
 31
0.0
  0
LINE
  8
CI
 10
4.873242
 20
2.886491
 30
0.0
 11
4.873242
 21
3.229491
 31
0.0
  0
LINE
  8
CI
 10
4.779492
 20
2.901791
 30
0.0
 11
4.810742
 21
2.886491
 31
0.0
  0
LINE
  8
CI
 10
4.748242
 20
2.886491
 30
0.0
 11
4.779492
 21
2.901791
 31
0.0
  0
LINE
  8
CI
 10
4.779492
 20
3.214191
 30
0.0
 11
4.810742
 21
3.229491
 31
0.0
  0
LINE
  8
CI
 10
4.748242
 20
3.229491
 30
0.0
 11
4.779492
 21
3.214191
 31
0.0
  0
LINE
  8
CI
 10
5.120742
 20
3.015491
 30
0.0
 11
5.120742
 21
3.100491
 31
0.0
  0
ARC
  8
CI
 10
4.89981
 20
3.057991
 30
0.0
 40
0.160932
 50
331.130789
 51
28.869211
  0
LINE
  8
CI
 10
5.060742
 20
2.933391
 30
0.0
 11
5.060742
 21
3.182591
 31
0.0
  0
ARC
  8
CI
 10
5.100742
 20
3.015491
 30
0.0
 40
0.02
 50
270.0
 51
0.0
  0
LINE
  8
CI
 10
5.060742
 20
2.995491
 30
0.0
 11
5.100742
 21
2.995491
 31
0.0
  0
ARC
  8
CI
 10
4.995752
 20
2.933391
 30
0.0
 40
0.06499
 50
313.809396
 51
46.190604
  0
ARC
  8
CI
 10
5.100742
 20
3.100491
 30
0.0
 40
0.02
 50
0.0
 51
90.0
  0
ARC
  8
CI
 10
4.995752
 20
3.182591
 30
0.0
 40
0.06499
 50
313.809396
 51
46.190604
  0
LINE
  8
CI
 10
5.060742
 20
3.120491
 30
0.0
 11
5.100742
 21
3.120491
 31
0.0
  0
LINE
  8
CI
 10
3.940742
 20
3.900741
 30
0.0
 11
4.910742
 21
3.900741
 31
0.0
  0
LINE
  8
CI
 10
3.940742
 20
3.463241
 30
0.0
 11
4.910742
 21
3.463241
 31
0.0
  0
ARC
  8
CI
 10
3.768233
 20
3.923866
 30
0.0
 40
0.17251
 50
332.136622
 51
27.863378
  0
ARC
  8
CI
 10
3.963252
 20
3.923866
 30
0.0
 40
0.17251
 50
152.136622
 51
207.863378
  0
LINE
  8
CI
 10
3.790742
 20
3.923866
 30
0.0
 11
3.790742
 21
3.440116
 31
0.0
  0
LINE
  8
CI
 10
3.790742
 20
3.923866
 30
0.0
 11
3.790742
 21
3.440116
 31
0.0
  0
ARC
  8
CI
 10
4.450781
 20
3.681991
 30
0.0
 40
0.660039
 50
165.85931
 51
194.14069
  0
LINE
  8
CI
 10
3.940742
 20
3.463241
 30
0.0
 11
3.940742
 21
3.900741
 31
0.0
  0
ARC
  8
CI
 10
3.280703
 20
3.681991
 30
0.0
 40
0.660039
 50
345.85931
 51
14.14069
  0
LINE
  8
CI
 10
3.940742
 20
3.440116
 30
0.0
 11
3.940742
 21
3.900741
 31
0.0
  0
POLYLINE
  8
CI
 66
     1
 10
0.0
 20
0.0
 30
0.0
 40
0.00375
 41
0.00375
  0
VERTEX
  8
CI
 10
4.012171
 20
3.535516
 30
0.0
  0
VERTEX
  8
CI
 10
4.012171
 20
3.828466
 30
0.0
  0
SEQEND
  8
CI
  0
ARC
  8
CI
 10
3.768233
 20
3.440116
 30
0.0
 40
0.17251
 50
332.136622
 51
27.863378
  0
ARC
  8
CI
 10
3.963252
 20
3.440116
 30
0.0
 40
0.17251
 50
152.136622
 51
207.863378
  0
LINE
  8
CI
 10
3.920742
 20
3.359491
 30
0.0
 11
3.810742
 21
3.359491
 31
0.0
  0
LINE
  8
CI
 10
3.810742
 20
3.276791
 30
0.0
 11
3.880742
 21
3.276791
 31
0.0
  0
LINE
  8
CI
 10
3.920742
 20
3.520741
 30
0.0
 11
3.810742
 21
3.520741
 31
0.0
  0
LINE
  8
CI
 10
3.920742
 20
3.843241
 30
0.0
 11
3.810742
 21
3.843241
 31
0.0
  0
LINE
  8
CI
 10
3.920742
 20
4.004491
 30
0.0
 11
3.810742
 21
4.004491
 31
0.0
  0
LINE
  8
CI
 10
4.083599
 20
3.463241
 30
0.0
 11
4.083599
 21
3.900741
 31
0.0
  0
LINE
  8
CI
 10
4.226457
 20
3.463241
 30
0.0
 11
4.226457
 21
3.900741
 31
0.0
  0
POLYLINE
  8
CI
 66
     1
 10
0.0
 20
0.0
 30
0.0
 40
0.00375
 41
0.00375
  0
VERTEX
  8
CI
 10
4.297885
 20
3.535516
 30
0.0
  0
VERTEX
  8
CI
 10
4.297885
 20
3.828466
 30
0.0
  0
SEQEND
  8
CI
  0
POLYLINE
  8
CI
 66
     1
 10
0.0
 20
0.0
 30
0.0
 40
0.00375
 41
0.00375
  0
VERTEX
  8
CI
 10
4.155028
 20
3.535516
 30
0.0
  0
VERTEX
  8
CI
 10
4.155028
 20
3.828466
 30
0.0
  0
SEQEND
  8
CI
  0
LINE
  8
CI
 10
4.655028
 20
3.463241
 30
0.0
 11
4.655028
 21
3.900741
 31
0.0
  0
LINE
  8
CI
 10
4.512171
 20
3.463241
 30
0.0
 11
4.512171
 21
3.900741
 31
0.0
  0
LINE
  8
CI
 10
4.369314
 20
3.463241
 30
0.0
 11
4.369314
 21
3.900741
 31
0.0
  0
POLYLINE
  8
CI
 66
     1
 10
0.0
 20
0.0
 30
0.0
 40
0.00375
 41
0.00375
  0
VERTEX
  8
CI
 10
4.583599
 20
3.535516
 30
0.0
  0
VERTEX
  8
CI
 10
4.583599
 20
3.828466
 30
0.0
  0
SEQEND
  8
CI
  0
POLYLINE
  8
CI
 66
     1
 10
0.0
 20
0.0
 30
0.0
 40
0.00375
 41
0.00375
  0
VERTEX
  8
CI
 10
4.440742
 20
3.535516
 30
0.0
  0
VERTEX
  8
CI
 10
4.440742
 20
3.828466
 30
0.0
  0
SEQEND
  8
CI
  0
LINE
  8
CI
 10
4.797885
 20
3.463241
 30
0.0
 11
4.797885
 21
3.900741
 31
0.0
  0
POLYLINE
  8
CI
 66
     1
 10
0.0
 20
0.0
 30
0.0
 40
0.00375
 41
0.00375
  0
VERTEX
  8
CI
 10
4.726457
 20
3.535516
 30
0.0
  0
VERTEX
  8
CI
 10
4.726457
 20
3.828466
 30
0.0
  0
SEQEND
  8
CI
  0
LINE
  8
CI
 10
4.910742
 20
3.900741
 30
0.0
 11
4.910742
 21
3.494491
 31
0.0
  0
POLYLINE
  8
CI
 66
     1
 10
0.0
 20
0.0
 30
0.0
 40
0.00375
 41
0.00375
  0
VERTEX
  8
CI
 10
4.869314
 20
3.535516
 30
0.0
  0
VERTEX
  8
CI
 10
4.869314
 20
3.828466
 30
0.0
  0
SEQEND
  8
CI
  0
LINE
  8
CI
 10
5.170742
 20
3.869491
 30
0.0
 11
5.170742
 21
3.494491
 31
0.0
  0
LINE
  8
CI
 10
4.941992
 20
3.494491
 30
0.0
 11
5.170742
 21
3.494491
 31
0.0
  0
LINE
  8
CI
 10
4.910742
 20
3.494491
 30
0.0
 11
4.910742
 21
3.463241
 31
0.0
  0
ARC
  8
CI
 10
4.941992
 20
3.463241
 30
0.0
 40
0.03125
 50
90.0
 51
180.0
  0
LINE
  8
CI
 10
4.941992
 20
3.869491
 30
0.0
 11
5.170742
 21
3.869491
 31
0.0
  0
LINE
  8
CI
 10
4.910742
 20
3.900741
 30
0.0
 11
4.910742
 21
3.900741
 31
0.0
  0
ARC
  8
CI
 10
4.941992
 20
3.900741
 30
0.0
 40
0.03125
 50
180.0
 51
270.0
  0
LINE
  8
SHAFT
 10
5.670742
 20
3.150691
 30
0.0
 11
5.670742
 21
3.589291
 31
0.0
  0
ENDSEC
  0
EOF
