  0
SECTION
  2
HEADER
  9
$ACADVER
  1
AC1009
  9
$INSBASE
 10
0.0
 20
0.0
 30
0.0
  9
$EXTMIN
 10
-11.423559
 20
-8.527753
 30
0.0
  9
$EXTMAX
 10
27.200803
 20
20.047404
 30
0.0
  9
$LIMMIN
 10
0.0
 20
0.0
  9
$LIMMAX
 10
12.0
 20
9.0
  9
$ORTHOMODE
 70
     1
  9
$REGENMODE
 70
     1
  9
$FILLMODE
 70
     1
  9
$QTEXTMODE
 70
     0
  9
$MIRRTEXT
 70
     1
  9
$DRAGMODE
 70
     2
  9
$LTSCALE
 40
1.0
  9
$OSMODE
 70
    32
  9
$ATTMODE
 70
     1
  9
$TEXTSIZE
 40
0.2
  9
$TRACEWID
 40
0.05
  9
$TEXTSTYLE
  7
STANDARD
  9
$CLAYER
  8
0
  9
$CELTYPE
  6
BYLAYER
  9
$CECOLOR
 62
   256
  9
$DIMSCALE
 40
1.0
  9
$DIMASZ
 40
0.18
  9
$DIMEXO
 40
0.0625
  9
$DIMDLI
 40
0.38
  9
$DIMRND
 40
0.0
  9
$DIMDLE
 40
0.0
  9
$DIMEXE
 40
0.18
  9
$DIMTP
 40
0.0
  9
$DIMTM
 40
0.0
  9
$DIMTXT
 40
0.18
  9
$DIMCEN
 40
0.09
  9
$DIMTSZ
 40
0.0
  9
$DIMTOL
 70
     0
  9
$DIMLIM
 70
     0
  9
$DIMTIH
 70
     1
  9
$DIMTOH
 70
     1
  9
$DIMSE1
 70
     0
  9
$DIMSE2
 70
     0
  9
$DIMTAD
 70
     0
  9
$DIMZIN
 70
     0
  9
$DIMBLK
  1

  9
$DIMASO
 70
     1
  9
$DIMSHO
 70
     1
  9
$DIMPOST
  1

  9
$DIMAPOST
  1

  9
$DIMALT
 70
     0
  9
$DIMALTD
 70
     2
  9
$DIMALTF
 40
25.4
  9
$DIMLFAC
 40
1.0
  9
$DIMTOFL
 70
     0
  9
$DIMTVP
 40
0.0
  9
$DIMTIX
 70
     0
  9
$DIMSOXD
 70
     0
  9
$DIMSAH
 70
     0
  9
$DIMBLK1
  1

  9
$DIMBLK2
  1

  9
$DIMSTYLE
  2
*UNNAMED
  9
$DIMCLRD
 70
     0
  9
$DIMCLRE
 70
     0
  9
$DIMCLRT
 70
     0
  9
$DIMTFAC
 40
1.0
  9
$DIMGAP
 40
0.09
  9
$LUNITS
 70
     2
  9
$LUPREC
 70
     4
  9
$SKETCHINC
 40
0.1
  9
$FILLETRAD
 40
0.0
  9
$AUNITS
 70
     0
  9
$AUPREC
 70
     0
  9
$MENU
  1
acad
  9
$ELEVATION
 40
0.0
  9
$PELEVATION
 40
0.0
  9
$THICKNESS
 40
0.0
  9
$LIMCHECK
 70
     0
  9
$BLIPMODE
 70
     0
  9
$CHAMFERA
 40
0.03125
  9
$CHAMFERB
 40
0.03125
  9
$SKPOLY
 70
     0
  9
$TDCREATE
 40
2450404.394104976
  9
$TDUPDATE
 40
2450404.394104976
  9
$TDINDWG
 40
0.0000000000
  9
$TDUSRTIMER
 40
0.0000000000
  9
$USRTIMER
 70
     1
  9
$ANGBASE
 50
0.0
  9
$ANGDIR
 70
     0
  9
$PDMODE
 70
     0
  9
$PDSIZE
 40
0.0
  9
$PLINEWID
 40
0.0
  9
$COORDS
 70
     0
  9
$SPLFRAME
 70
     0
  9
$SPLINETYPE
 70
     6
  9
$SPLINESEGS
 70
     8
  9
$ATTDIA
 70
     0
  9
$ATTREQ
 70
     1
  9
$HANDLING
 70
     0
  9
$HANDSEED
  5
180B
  9
$SURFTAB1
 70
     6
  9
$SURFTAB2
 70
     6
  9
$SURFTYPE
 70
     6
  9
$SURFU
 70
     6
  9
$SURFV
 70
     6
  9
$UCSNAME
  2

  9
$UCSORG
 10
0.0
 20
0.0
 30
0.0
  9
$UCSXDIR
 10
1.0
 20
0.0
 30
0.0
  9
$UCSYDIR
 10
0.0
 20
1.0
 30
0.0
  9
$PUCSNAME
  2

  9
$PUCSORG
 10
0.0
 20
0.0
 30
0.0
  9
$PUCSXDIR
 10
1.0
 20
0.0
 30
0.0
  9
$PUCSYDIR
 10
0.0
 20
1.0
 30
0.0
  9
$USERI1
 70
     0
  9
$USERI2
 70
     0
  9
$USERI3
 70
     0
  9
$USERI4
 70
     0
  9
$USERI5
 70
     0
  9
$USERR1
 40
0.0
  9
$USERR2
 40
0.0
  9
$USERR3
 40
0.0
  9
$USERR4
 40
0.0
  9
$USERR5
 40
0.0
  9
$WORLDVIEW
 70
     1
  9
$SHADEDGE
 70
     3
  9
$SHADEDIF
 70
    70
  9
$TILEMODE
 70
     1
  9
$MAXACTVP
 70
    16
  9
$PINSBASE
 10
-7.780077
 20
50.0
 30
-14.42362
  9
$PLIMCHECK
 70
     0
  9
$PEXTMIN
 10
1.000000E+20
 20
1.000000E+20
 30
1.000000E+20
  9
$PEXTMAX
 10
-1.000000E+20
 20
-1.000000E+20
 30
-1.000000E+20
  9
$PLIMMIN
 10
0.0
 20
0.0
  9
$PLIMMAX
 10
12.0
 20
9.0
  9
$UNITMODE
 70
     0
  9
$VISRETAIN
 70
     0
  9
$PLINEGEN
 70
     0
  9
$PSLTSCALE
 70
     0
  9
$TREEDEPTH
 70
  3020
  9
$DWGCODEPAGE
  3
undefined
  0
ENDSEC
  0
SECTION
  2
TABLES
  0
TABLE
  2
VPORT
 70
     1
  0
VPORT
  2
*ACTIVE
 70
     0
 10
0.0
 20
0.0
 11
1.0
 21
1.0
 12
-1.339529
 22
-0.046699
 13
0.0
 23
0.0
 14
1.0
 24
1.0
 15
0.0
 25
0.0
 16
0.0
 26
0.0
 36
1.0
 17
0.0
 27
0.0
 37
0.0
 40
18.763801
 41
1.382567
 42
50.0
 43
0.0
 44
0.0
 50
0.0
 51
0.0
 71
     0
 72
   100
 73
     1
 74
     0
 75
     0
 76
     0
 77
     0
 78
     0
  0
ENDTAB
  0
TABLE
  2
LTYPE
 70
     3
  0
LTYPE
  2
CONTINUOUS
 70
    64
  3
Solid line
 72
    65
 73
     0
 40
0.0
  0
LTYPE
  2
CENTER
 70
    64
  3
____ _ ____ _ ____ _ ____ _ ____ _ ____ _ ____ 
 72
    65
 73
     4
 40
2.0
 49
1.25
 49
-0.25
 49
0.25
 49
-0.25
  0
LTYPE
  2
HIDDEN
 70
    64
  3
__ __ __ __ __ __ __ __ __ __ __ __ __ __ __ __
 72
    65
 73
     2
 40
0.375
 49
0.25
 49
-0.125
  0
ENDTAB
  0
TABLE
  2
LAYER
 70
     7
  0
LAYER
  2
0
 70
     0
 62
     7
  6
CONTINUOUS
  0
LAYER
  2
OBJ
 70
    64
 62
     5
  6
CONTINUOUS
  0
LAYER
  2
CENTER
 70
    64
 62
     2
  6
CENTER
  0
LAYER
  2
HID
 70
    64
 62
    14
  6
HIDDEN
  0
LAYER
  2
SHAFT
 70
    64
 62
     1
  6
CONTINUOUS
  0
LAYER
  2
DIM
 70
    64
 62
    12
  6
CONTINUOUS
  0
LAYER
  2
CI
 70
    64
 62
     8
  6
CONTINUOUS
  0
ENDTAB
  0
TABLE
  2
STYLE
 70
     1
  0
STYLE
  2
STANDARD
 70
    64
 40
0.0
 41
1.0
 50
0.0
 71
     0
 42
0.2
  3
txt
  4

  0
ENDTAB
  0
TABLE
  2
VIEW
 70
     0
  0
ENDTAB
  0
TABLE
  2
UCS
 70
     0
  0
ENDTAB
  0
TABLE
  2
APPID
 70
     1
  0
APPID
  2
ACAD
 70
    64
  0
ENDTAB
  0
TABLE
  2
DIMSTYLE
 70
     0
  0
ENDTAB
  0
ENDSEC
  0
SECTION
  2
BLOCKS
  0
ENDSEC
  0
SECTION
  2
ENTITIES
  0
LINE
  8
SHAFT
 10
-2.266984
 20
7.009564
 30
0.0
 11
-6.2443
 21
7.009564
 31
0.0
  0
LINE
  8
SHAFT
 10
-2.0243
 20
1.375
 30
0.0
 11
-6.2443
 21
1.375
 31
0.0
  0
LINE
  8
SHAFT
 10
-2.0243
 20
2.125
 30
0.0
 11
-6.2443
 21
2.125
 31
0.0
  0
LINE
  8
SHAFT
 10
-2.501244
 20
6.259564
 30
0.0
 11
-6.2443
 21
6.259564
 31
0.0
  0
LINE
  8
SHAFT
 10
-2.0243
 20
-1.375
 30
0.0
 11
-6.2443
 21
-1.375
 31
0.0
  0
LINE
  8
SHAFT
 10
-2.0243
 20
-2.125
 30
0.0
 11
-6.2443
 21
-2.125
 31
0.0
  0
LINE
  8
SHAFT
 10
-2.0243
 20
-0.1565
 30
0.0
 11
-6.2443
 21
-0.1565
 31
0.0
  0
LINE
  8
SHAFT
 10
-2.0243
 20
0.1565
 30
0.0
 11
-6.2443
 21
0.1565
 31
0.0
  0
LINE
  8
SHAFT
 10
-2.0243
 20
-5.849986
 30
0.0
 11
-6.2443
 21
-5.849986
 31
0.0
  0
LINE
  8
SHAFT
 10
-2.0243
 20
-5.099986
 30
0.0
 11
-6.2443
 21
-5.099986
 31
0.0
  0
LINE
  8
CENTER
 10
7.543689
 20
-5.474986
 30
0.0
 11
-7.801285
 21
-5.474986
 31
0.0
  0
LINE
  8
CENTER
 10
7.543689
 20
0.0
 30
0.0
 11
-7.543689
 21
0.0
 31
0.0
  0
LINE
  8
CENTER
 10
7.543689
 20
6.634564
 30
0.0
 11
-7.801285
 21
6.634564
 31
0.0
  0
TEXT
  8
DIM
 10
-7.243216
 20
-8.008793
 30
0.0
 40
0.54
  1
LA-3-4
  0
LINE
  8
OBJ
 10
-6.2443
 20
-6.414986
 30
0.0
 11
-6.2443
 21
-4.534986
 31
0.0
  0
LINE
  8
OBJ
 10
-6.9943
 20
-6.414986
 30
0.0
 11
-6.9943
 21
-4.534986
 31
0.0
  0
LINE
  8
OBJ
 10
-6.2443
 20
-6.414986
 30
0.0
 11
-6.9943
 21
-6.414986
 31
0.0
  0
POLYLINE
  8
CI
 66
     1
 10
0.0
 20
0.0
 30
0.0
 70
     1
  0
VERTEX
  8
CI
 10
-6.51305
 20
-4.788642
 30
0.0
  0
VERTEX
  8
CI
 10
-6.6193
 20
-4.727299
 30
0.0
  0
VERTEX
  8
CI
 10
-6.72555
 20
-4.788642
 30
0.0
  0
VERTEX
  8
CI
 10
-6.72555
 20
-4.911329
 30
0.0
  0
VERTEX
  8
CI
 10
-6.6193
 20
-4.972673
 30
0.0
  0
VERTEX
  8
CI
 10
-6.51305
 20
-4.911329
 30
0.0
  0
SEQEND
  8
CI
  0
CIRCLE
  8
CI
 10
-6.6193
 20
-4.849986
 30
0.0
 40
0.1775
  0
LINE
  8
OBJ
 10
-6.2443
 20
-4.534986
 30
0.0
 11
-6.9943
 21
-4.534986
 31
0.0
  0
CIRCLE
  8
OBJ
 10
-6.6193
 20
-4.849986
 30
0.0
 40
0.195
  0
LINE
  8
OBJ
 10
-6.3068
 20
-4.534986
 30
0.0
 11
-6.4943
 21
-4.534986
 31
0.0
  0
LINE
  8
CI
 10
-10.454809
 20
3.19
 30
0.0
 11
-10.454809
 21
2.123696
 31
0.0
  0
LINE
  8
CI
 10
-10.392309
 20
3.19
 30
0.0
 11
-10.392309
 21
2.123696
 31
0.0
  0
LINE
  8
SHAFT
 10
-9.423559
 20
2.5
 30
0.0
 11
-9.423559
 21
3.5
 31
0.0
  0
LINE
  8
SHAFT
 10
-11.423559
 20
2.5
 30
0.0
 11
-11.423559
 21
3.5
 31
0.0
  0
LINE
  8
OBJ
 10
-6.2443
 20
3.19
 30
0.0
 11
-6.2443
 21
-2.435
 31
0.0
  0
LINE
  8
OBJ
 10
-6.9943
 20
3.19
 30
0.0
 11
-6.9943
 21
-2.435
 31
0.0
  0
LINE
  8
OBJ
 10
-9.483559
 20
3.19
 30
0.0
 11
-9.483559
 21
-1.71875
 31
0.0
  0
LINE
  8
OBJ
 10
-11.363559
 20
3.19
 30
0.0
 11
-11.363559
 21
-2.435
 31
0.0
  0
LINE
  8
CENTER
 10
-9.798559
 20
-0.84
 30
0.0
 11
-9.798559
 21
-0.66
 31
0.0
  0
CIRCLE
  8
CI
 10
-9.798559
 20
-0.75
 30
0.0
 40
0.1255
  0
LINE
  8
OBJ
 10
-11.423559
 20
2.5
 30
0.0
 11
-11.423559
 21
-2.5
 31
0.0
  0
LINE
  8
OBJ
 10
-9.423559
 20
2.5
 30
0.0
 11
-9.423559
 21
-2.5
 31
0.0
  0
LINE
  8
CI
 10
-9.483559
 20
-1.78125
 30
0.0
 11
-10.049864
 21
-1.78125
 31
0.0
  0
LINE
  8
CI
 10
-9.483559
 20
-1.71875
 30
0.0
 11
-10.049864
 21
-1.71875
 31
0.0
  0
CIRCLE
  8
CI
 10
-9.798559
 20
-1.25
 30
0.0
 40
0.1005
  0
LINE
  8
CENTER
 10
-9.888559
 20
-0.75
 30
0.0
 11
-9.708559
 21
-0.75
 31
0.0
  0
LINE
  8
CENTER
 10
-9.888559
 20
-1.25
 30
0.0
 11
-9.708559
 21
-1.25
 31
0.0
  0
LINE
  8
OBJ
 10
-9.423559
 20
-2.5
 30
0.0
 11
-11.423559
 21
-2.5
 31
0.0
  0
CIRCLE
  8
HID
 10
-9.798559
 20
-1.25
 30
0.0
 40
0.125
  0
LINE
  8
OBJ
 10
-9.483559
 20
-2.435
 30
0.0
 11
-11.363559
 21
-2.435
 31
0.0
  0
CIRCLE
  8
HID
 10
-11.048559
 20
-1.25
 30
0.0
 40
0.125
  0
CIRCLE
  8
CI
 10
-11.048559
 20
-1.25
 30
0.0
 40
0.1005
  0
LINE
  8
CENTER
 10
-11.138559
 20
-1.25
 30
0.0
 11
-10.958559
 21
-1.25
 31
0.0
  0
LINE
  8
CENTER
 10
-11.048559
 20
-1.16
 30
0.0
 11
-11.048559
 21
-1.34
 31
0.0
  0
ARC
  8
CI
 10
-10.423559
 20
-1.75
 30
0.0
 40
0.375
 50
4.780192
 51
355.219808
  0
CIRCLE
  8
CI
 10
-10.423559
 20
-1.75
 30
0.0
 40
0.334384
  0
LINE
  8
CENTER
 10
-9.798559
 20
-1.16
 30
0.0
 11
-9.798559
 21
-1.34
 31
0.0
  0
LINE
  8
OBJ
 10
-9.483559
 20
-1.78125
 30
0.0
 11
-9.483559
 21
-2.435
 31
0.0
  0
CIRCLE
  8
CI
 10
-9.798559
 20
1.25
 30
0.0
 40
0.1005
  0
LINE
  8
CENTER
 10
-9.888559
 20
1.25
 30
0.0
 11
-9.708559
 21
1.25
 31
0.0
  0
CIRCLE
  8
HID
 10
-9.798559
 20
1.25
 30
0.0
 40
0.125
  0
LINE
  8
CENTER
 10
-11.138559
 20
0.75
 30
0.0
 11
-10.958559
 21
0.75
 31
0.0
  0
CIRCLE
  8
CI
 10
-11.048559
 20
0.75
 30
0.0
 40
0.1255
  0
LINE
  8
CENTER
 10
-11.048559
 20
0.66
 30
0.0
 11
-11.048559
 21
0.84
 31
0.0
  0
POLYLINE
  8
CI
 66
     1
 10
0.0
 20
0.0
 30
0.0
 70
     1
  0
VERTEX
  8
CI
 10
-10.317309
 20
0.061343
 30
0.0
  0
VERTEX
  8
CI
 10
-10.423559
 20
0.122687
 30
0.0
  0
VERTEX
  8
CI
 10
-10.529809
 20
0.061343
 30
0.0
  0
VERTEX
  8
CI
 10
-10.529809
 20
-0.061343
 30
0.0
  0
VERTEX
  8
CI
 10
-10.423559
 20
-0.122687
 30
0.0
  0
VERTEX
  8
CI
 10
-10.317309
 20
-0.061343
 30
0.0
  0
SEQEND
  8
CI
  0
CIRCLE
  8
CI
 10
-10.423559
 20
0.0
 30
0.0
 40
0.1775
  0
CIRCLE
  8
OBJ
 10
-10.423559
 20
0.0
 30
0.0
 40
0.195
  0
CIRCLE
  8
HID
 10
-11.048559
 20
1.25
 30
0.0
 40
0.125
  0
CIRCLE
  8
CI
 10
-11.048559
 20
1.25
 30
0.0
 40
0.1005
  0
LINE
  8
CENTER
 10
-11.138559
 20
1.25
 30
0.0
 11
-10.958559
 21
1.25
 31
0.0
  0
LINE
  8
CENTER
 10
-11.048559
 20
1.16
 30
0.0
 11
-11.048559
 21
1.34
 31
0.0
  0
LINE
  8
OBJ
 10
-11.363559
 20
2.5
 30
0.0
 11
-11.423559
 21
2.5
 31
0.0
  0
ARC
  8
CI
 10
-10.423559
 20
1.75
 30
0.0
 40
0.375
 50
94.780192
 51
85.219808
  0
CIRCLE
  8
CI
 10
-10.423559
 20
1.75
 30
0.0
 40
0.334384
  0
LINE
  8
CENTER
 10
-9.798559
 20
1.16
 30
0.0
 11
-9.798559
 21
1.34
 31
0.0
  0
LINE
  8
OBJ
 10
-9.423559
 20
2.5
 30
0.0
 11
-9.483559
 21
2.5
 31
0.0
  0
LINE
  8
OBJ
 10
-6.2443
 20
-2.435
 30
0.0
 11
-6.9943
 21
-2.435
 31
0.0
  0
LINE
  8
CI
 10
-6.2443
 20
-1.71875
 30
0.0
 11
-6.9943
 21
-1.71875
 31
0.0
  0
LINE
  8
CI
 10
-6.2443
 20
-1.78125
 30
0.0
 11
-6.9943
 21
-1.78125
 31
0.0
  0
LINE
  8
OBJ
 10
-9.483559
 20
3.19
 30
0.0
 11
-10.392309
 21
3.19
 31
0.0
  0
LINE
  8
SHAFT
 10
-9.423559
 20
3.5
 30
0.0
 11
-11.423559
 21
3.5
 31
0.0
  0
LINE
  8
OBJ
 10
-10.454809
 20
3.19
 30
0.0
 11
-11.363559
 21
3.19
 31
0.0
  0
LINE
  8
OBJ
 10
-6.9943
 20
5.694564
 30
0.0
 11
-6.9943
 21
7.574564
 31
0.0
  0
LINE
  8
OBJ
 10
-6.2443
 20
5.694564
 30
0.0
 11
-6.2443
 21
7.574564
 31
0.0
  0
CIRCLE
  8
CI
 10
-6.6193
 20
2.875
 30
0.0
 40
0.1775
  0
POLYLINE
  8
CI
 66
     1
 10
0.0
 20
0.0
 30
0.0
 70
     1
  0
VERTEX
  8
CI
 10
-6.51305
 20
2.936343
 30
0.0
  0
VERTEX
  8
CI
 10
-6.6193
 20
2.997687
 30
0.0
  0
VERTEX
  8
CI
 10
-6.72555
 20
2.936343
 30
0.0
  0
VERTEX
  8
CI
 10
-6.72555
 20
2.813657
 30
0.0
  0
VERTEX
  8
CI
 10
-6.6193
 20
2.752313
 30
0.0
  0
VERTEX
  8
CI
 10
-6.51305
 20
2.813657
 30
0.0
  0
SEQEND
  8
CI
  0
LINE
  8
OBJ
 10
-6.2443
 20
3.19
 30
0.0
 11
-6.9943
 21
3.19
 31
0.0
  0
CIRCLE
  8
OBJ
 10
-6.6193
 20
2.875
 30
0.0
 40
0.195
  0
LINE
  8
OBJ
 10
-6.2443
 20
5.694564
 30
0.0
 11
-6.9943
 21
5.694564
 31
0.0
  0
LINE
  8
CI
 10
-6.2443
 20
6.603314
 30
0.0
 11
-6.9943
 21
6.603314
 31
0.0
  0
LINE
  8
CI
 10
-6.2443
 20
6.665814
 30
0.0
 11
-6.9943
 21
6.665814
 31
0.0
  0
LINE
  8
OBJ
 10
-6.2443
 20
7.574564
 30
0.0
 11
-6.9943
 21
7.574564
 31
0.0
  0
LINE
  8
OBJ
 10
-6.3068
 20
7.574564
 30
0.0
 11
-6.4943
 21
7.574564
 31
0.0
  0
ARC
  8
CI
 10
5.150825
 20
-4.404683
 30
0.0
 40
0.209697
 50
64.772745
 51
115.227255
  0
CIRCLE
  8
CI
 10
5.1007
 20
-6.284986
 30
0.0
 40
0.1005
  0
CIRCLE
  8
CI
 10
5.1007
 20
-4.664986
 30
0.0
 40
0.1005
  0
LINE
  8
CI
 10
5.06145
 20
-4.194986
 30
0.0
 11
5.150825
 21
-4.194986
 31
0.0
  0
LINE
  8
CENTER
 10
5.1907
 20
-4.664986
 30
0.0
 11
5.0107
 21
-4.664986
 31
0.0
  0
LINE
  8
CENTER
 10
5.1907
 20
-6.284986
 30
0.0
 11
5.0107
 21
-6.284986
 31
0.0
  0
CIRCLE
  8
HID
 10
5.1007
 20
-6.284986
 30
0.0
 40
0.125
  0
CIRCLE
  8
HID
 10
5.1007
 20
-4.664986
 30
0.0
 40
0.125
  0
TEXT
  8
DIM
 10
-2.335136
 20
-7.96754
 30
0.0
 40
0.536836
  1
LINEAR ACTUATOR
  0
LINE
  8
OBJ
 10
6.1007
 20
-6.474986
 30
0.0
 11
-2.0243
 21
-6.474986
 31
0.0
  0
LINE
  8
OBJ
 10
6.1007
 20
-4.474986
 30
0.0
 11
-2.0243
 21
-4.474986
 31
0.0
  0
TEXT
  8
DIM
 10
-1.721852
 20
-8.527753
 30
0.0
 40
0.24
  1
1-1/8" BORE
  0
LINE
  8
OBJ
 10
-2.0243
 20
-4.474986
 30
0.0
 11
-2.0243
 21
-6.474986
 31
0.0
  0
CIRCLE
  8
HID
 10
-1.0243
 20
-6.284986
 30
0.0
 40
0.125
  0
CIRCLE
  8
CI
 10
-1.0243
 20
-6.284986
 30
0.0
 40
0.1005
  0
LINE
  8
CENTER
 10
-1.1143
 20
-6.284986
 30
0.0
 11
-0.9343
 21
-6.284986
 31
0.0
  0
LINE
  8
CENTER
 10
-1.0243
 20
-6.194986
 30
0.0
 11
-1.0243
 21
-6.374986
 31
0.0
  0
LINE
  8
CI
 10
-1.074426
 20
-4.194986
 30
0.0
 11
-0.538175
 21
-4.194986
 31
0.0
  0
ARC
  8
CI
 10
-0.8063
 20
-5.003775
 30
0.0
 40
0.808789
 50
77.231672
 51
102.768328
  0
CIRCLE
  8
CI
 10
-1.0243
 20
-4.664986
 30
0.0
 40
0.1005
  0
LINE
  8
CENTER
 10
-1.1143
 20
-4.664986
 30
0.0
 11
-0.9343
 21
-4.664986
 31
0.0
  0
CIRCLE
  8
HID
 10
-1.0243
 20
-4.664986
 30
0.0
 40
0.125
  0
LINE
  8
CENTER
 10
-1.0243
 20
-4.754986
 30
0.0
 11
-1.0243
 21
-4.574986
 31
0.0
  0
ARC
  8
CI
 10
-1.074425
 20
-4.404683
 30
0.0
 40
0.209697
 50
64.772745
 51
115.227255
  0
LINE
  8
CI
 10
-1.1638
 20
-4.214986
 30
0.0
 11
-1.1638
 21
-4.474986
 31
0.0
  0
LINE
  8
CI
 10
-0.98505
 20
-4.214986
 30
0.0
 11
-0.98505
 21
-4.474986
 31
0.0
  0
ARC
  8
CI
 10
-0.538175
 20
-4.404683
 30
0.0
 40
0.209697
 50
64.772745
 51
115.227255
  0
LINE
  8
CI
 10
-0.62755
 20
-4.214986
 30
0.0
 11
-0.62755
 21
-4.474986
 31
0.0
  0
LINE
  8
CI
 10
-0.4488
 20
-4.214986
 30
0.0
 11
-0.4488
 21
-4.474986
 31
0.0
  0
ARC
  8
CI
 10
4.614575
 20
-4.404683
 30
0.0
 40
0.209697
 50
64.772745
 51
115.227255
  0
LINE
  8
CI
 10
4.5252
 20
-4.214986
 30
0.0
 11
4.5252
 21
-4.474986
 31
0.0
  0
ARC
  8
CI
 10
4.8827
 20
-5.003775
 30
0.0
 40
0.808789
 50
77.231672
 51
102.768328
  0
LINE
  8
CI
 10
4.70395
 20
-4.194986
 30
0.0
 11
5.06145
 21
-4.194986
 31
0.0
  0
LINE
  8
CI
 10
4.614575
 20
-4.194986
 30
0.0
 11
4.70395
 21
-4.194986
 31
0.0
  0
LINE
  8
CI
 10
4.70395
 20
-4.214986
 30
0.0
 11
4.70395
 21
-4.474986
 31
0.0
  0
LINE
  8
CI
 10
5.06145
 20
-4.214986
 30
0.0
 11
5.06145
 21
-4.474986
 31
0.0
  0
LINE
  8
OBJ
 10
7.0057
 20
-6.414986
 30
0.0
 11
7.0057
 21
-4.534986
 31
0.0
  0
LINE
  8
OBJ
 10
6.2557
 20
-6.414986
 30
0.0
 11
6.2557
 21
-4.534986
 31
0.0
  0
LINE
  8
OBJ
 10
6.1007
 20
-4.474986
 30
0.0
 11
6.1007
 21
-6.474986
 31
0.0
  0
LINE
  8
SHAFT
 10
6.2557
 20
-5.849986
 30
0.0
 11
6.1007
 21
-5.849986
 31
0.0
  0
LINE
  8
CENTER
 10
5.1007
 20
-6.194986
 30
0.0
 11
5.1007
 21
-6.374986
 31
0.0
  0
LINE
  8
OBJ
 10
7.0057
 20
-6.414986
 30
0.0
 11
6.2557
 21
-6.414986
 31
0.0
  0
LINE
  8
SHAFT
 10
6.2557
 20
-5.099986
 30
0.0
 11
6.1007
 21
-5.099986
 31
0.0
  0
LINE
  8
CENTER
 10
5.1007
 20
-4.754986
 30
0.0
 11
5.1007
 21
-4.574986
 31
0.0
  0
LINE
  8
CI
 10
5.2402
 20
-4.214986
 30
0.0
 11
5.2402
 21
-4.474986
 31
0.0
  0
POLYLINE
  8
CI
 66
     1
 10
0.0
 20
0.0
 30
0.0
 70
     1
  0
VERTEX
  8
CI
 10
6.73695
 20
-4.788642
 30
0.0
  0
VERTEX
  8
CI
 10
6.6307
 20
-4.727299
 30
0.0
  0
VERTEX
  8
CI
 10
6.52445
 20
-4.788642
 30
0.0
  0
VERTEX
  8
CI
 10
6.52445
 20
-4.911329
 30
0.0
  0
VERTEX
  8
CI
 10
6.6307
 20
-4.972673
 30
0.0
  0
VERTEX
  8
CI
 10
6.73695
 20
-4.911329
 30
0.0
  0
SEQEND
  8
CI
  0
CIRCLE
  8
CI
 10
6.6307
 20
-4.849986
 30
0.0
 40
0.1775
  0
CIRCLE
  8
OBJ
 10
6.6307
 20
-4.849986
 30
0.0
 40
0.195
  0
LINE
  8
OBJ
 10
7.0057
 20
-4.534986
 30
0.0
 11
6.2557
 21
-4.534986
 31
0.0
  0
POLYLINE
  8
CI
 66
     1
 10
0.0
 20
0.0
 30
0.0
 70
     1
  0
VERTEX
  8
CI
 10
5.0427
 20
0.277128
 30
0.0
  0
VERTEX
  8
CI
 10
5.2027
 20
0.0
 30
0.0
  0
VERTEX
  8
CI
 10
5.0427
 20
-0.277128
 30
0.0
  0
VERTEX
  8
CI
 10
4.7227
 20
-0.277128
 30
0.0
  0
VERTEX
  8
CI
 10
4.5627
 20
0.0
 30
0.0
  0
VERTEX
  8
CI
 10
4.7227
 20
0.277128
 30
0.0
  0
SEQEND
  8
CI
  0
ARC
  8
CI
 10
5.150825
 20
5.564261
 30
0.0
 40
0.209697
 50
244.772745
 51
295.227255
  0
LINE
  8
CI
 10
5.06145
 20
5.354564
 30
0.0
 11
5.150825
 21
5.354564
 31
0.0
  0
CIRCLE
  8
SHAFT
 10
5.1637
 20
7.454564
 30
0.0
 40
0.132813
  0
CIRCLE
  8
SHAFT
 10
5.1637
 20
7.454564
 30
0.0
 40
0.125
  0
CIRCLE
  8
SHAFT
 10
5.1637
 20
5.814564
 30
0.0
 40
0.125
  0
CIRCLE
  8
SHAFT
 10
5.1637
 20
5.814564
 30
0.0
 40
0.132813
  0
LINE
  8
OBJ
 10
4.818787
 20
0.31
 30
0.0
 11
5.1957
 21
0.31
 31
0.0
  0
LINE
  8
SHAFT
 10
4.9757
 20
2.5
 30
0.0
 11
5.8507
 21
2.5
 31
0.0
  0
LINE
  8
SHAFT
 10
5.8507
 20
3.5
 30
0.0
 11
4.9757
 21
3.5
 31
0.0
  0
LINE
  8
OBJ
 10
4.818787
 20
-0.31
 30
0.0
 11
5.1957
 21
-0.31
 31
0.0
  0
LINE
  8
OBJ
 10
6.1007
 20
2.5
 30
0.0
 11
-2.0243
 21
2.5
 31
0.0
  0
LINE
  8
OBJ
 10
6.1007
 20
-2.5
 30
0.0
 11
-2.0243
 21
-2.5
 31
0.0
  0
LINE
  8
OBJ
 10
6.1007
 20
7.634564
 30
0.0
 11
-2.0243
 21
7.634564
 31
0.0
  0
LINE
  8
OBJ
 10
6.1007
 20
5.634564
 30
0.0
 11
-2.0243
 21
5.634564
 31
0.0
  0
ARC
  8
CI
 10
-0.738759
 20
2.698738
 30
0.0
 40
0.159458
 50
318.516824
 51
41.483176
  0
ARC
  8
CI
 10
-0.739842
 20
2.698738
 30
0.0
 40
0.159458
 50
138.516824
 51
221.483176
  0
ARC
  8
CI
 10
4.816241
 20
2.713125
 30
0.0
 40
0.159458
 50
318.516824
 51
41.483176
  0
ARC
  8
CI
 10
4.815158
 20
2.713125
 30
0.0
 40
0.159458
 50
138.516824
 51
221.483176
  0
LINE
  8
SHAFT
 10
4.9757
 20
3.5
 30
0.0
 11
4.9757
 21
2.5
 31
0.0
  0
LINE
  8
SHAFT
 10
-0.8993
 20
3.5
 30
0.0
 11
-0.8993
 21
2.5
 31
0.0
  0
LINE
  8
SHAFT
 10
-1.7743
 20
2.5
 30
0.0
 11
-1.7743
 21
3.5
 31
0.0
  0
CIRCLE
  8
CI
 10
0.9757
 20
-1.0
 30
0.0
 40
0.1285
  0
CIRCLE
  8
CI
 10
0.9757
 20
1.0
 30
0.0
 40
0.1285
  0
CIRCLE
  8
HID
 10
0.9757
 20
1.0
 30
0.0
 40
0.15625
  0
CIRCLE
  8
HID
 10
0.9757
 20
-1.0
 30
0.0
 40
0.15625
  0
LINE
  8
OBJ
 10
-2.0243
 20
2.5
 30
0.0
 11
-2.0243
 21
-2.5
 31
0.0
  0
LINE
  8
SHAFT
 10
-0.8993
 20
2.5
 30
0.0
 11
-1.7743
 21
2.5
 31
0.0
  0
CIRCLE
  8
CI
 10
0.4757
 20
1.0
 30
0.0
 40
0.1255
  0
LINE
  8
CENTER
 10
0.4757
 20
0.91
 30
0.0
 11
0.4757
 21
1.09
 31
0.0
  0
POLYLINE
  8
CI
 66
     1
 10
0.0
 20
0.0
 30
0.0
 70
     1
  0
VERTEX
  8
CI
 10
-0.9663
 20
0.277128
 30
0.0
  0
VERTEX
  8
CI
 10
-1.1263
 20
0.0
 30
0.0
  0
VERTEX
  8
CI
 10
-0.9663
 20
-0.277128
 30
0.0
  0
VERTEX
  8
CI
 10
-0.6463
 20
-0.277128
 30
0.0
  0
VERTEX
  8
CI
 10
-0.4863
 20
0.0
 30
0.0
  0
VERTEX
  8
CI
 10
-0.6463
 20
0.277128
 30
0.0
  0
SEQEND
  8
CI
  0
CIRCLE
  8
CI
 10
-0.8063
 20
0.0
 30
0.0
 40
0.1695
  0
CIRCLE
  8
HID
 10
-0.8063
 20
0.0
 30
0.0
 40
0.19
  0
ARC
  8
OBJ
 10
-0.8063
 20
0.0
 30
0.0
 40
0.31
 50
123.375374
 51
176.624626
  0
ARC
  8
OBJ
 10
-0.8063
 20
0.0
 30
0.0
 40
0.31
 50
3.375374
 51
56.624626
  0
ARC
  8
OBJ
 10
-0.8063
 20
0.0
 30
0.0
 40
0.31
 50
243.375374
 51
296.624626
  0
ARC
  8
OBJ
 10
-0.8063
 20
0.0
 30
0.0
 40
0.31
 50
183.375374
 51
236.624626
  0
ARC
  8
OBJ
 10
-0.8063
 20
0.0
 30
0.0
 40
0.31
 50
303.375374
 51
356.624626
  0
ARC
  8
OBJ
 10
-0.8063
 20
0.0
 30
0.0
 40
0.31
 50
63.375374
 51
116.624626
  0
LINE
  8
CI
 10
-0.8593
 20
2.593113
 30
0.0
 11
-0.6193
 21
2.593113
 31
0.0
  0
LINE
  8
CENTER
 10
0.3857
 20
1.0
 30
0.0
 11
0.5657
 21
1.0
 31
0.0
  0
CIRCLE
  8
CI
 10
3.1007
 20
-1.0
 30
0.0
 40
0.1285
  0
CIRCLE
  8
HID
 10
3.1007
 20
-1.0
 30
0.0
 40
0.15625
  0
LINE
  8
CENTER
 10
0.9757
 20
-1.09
 30
0.0
 11
0.9757
 21
-0.91
 31
0.0
  0
LINE
  8
CENTER
 10
0.8857
 20
-1.0
 30
0.0
 11
1.0657
 21
-1.0
 31
0.0
  0
CIRCLE
  8
CI
 10
3.6007
 20
-1.0
 30
0.0
 40
0.1255
  0
LINE
  8
CENTER
 10
3.1007
 20
-1.09
 30
0.0
 11
3.1007
 21
-0.91
 31
0.0
  0
LINE
  8
CENTER
 10
3.1907
 20
-1.0
 30
0.0
 11
3.0107
 21
-1.0
 31
0.0
  0
LINE
  8
CENTER
 10
3.6007
 20
-1.09
 30
0.0
 11
3.6007
 21
-0.91
 31
0.0
  0
LINE
  8
CENTER
 10
3.6907
 20
-1.0
 30
0.0
 11
3.5107
 21
-1.0
 31
0.0
  0
CIRCLE
  8
CI
 10
3.1007
 20
1.0
 30
0.0
 40
0.1285
  0
CIRCLE
  8
HID
 10
3.1007
 20
1.0
 30
0.0
 40
0.15625
  0
LINE
  8
CENTER
 10
0.9757
 20
0.91
 30
0.0
 11
0.9757
 21
1.09
 31
0.0
  0
LINE
  8
CENTER
 10
0.8857
 20
1.0
 30
0.0
 11
1.0657
 21
1.0
 31
0.0
  0
LINE
  8
CENTER
 10
3.1007
 20
0.91
 30
0.0
 11
3.1007
 21
1.09
 31
0.0
  0
CIRCLE
  8
CI
 10
4.8827
 20
0.0
 30
0.0
 40
0.1695
  0
CIRCLE
  8
HID
 10
4.8827
 20
0.0
 30
0.0
 40
0.19
  0
ARC
  8
OBJ
 10
4.818787
 20
0.0
 30
0.0
 40
0.31
 50
90.0
 51
270.0
  0
LINE
  8
CENTER
 10
3.0107
 20
1.0
 30
0.0
 11
3.1907
 21
1.0
 31
0.0
  0
LINE
  8
CI
 10
4.6957
 20
2.6075
 30
0.0
 11
4.9357
 21
2.6075
 31
0.0
  0
LINE
  8
CI
 10
1.189952
 20
3.265534
 30
0.0
 11
-0.5793
 21
3.265534
 31
0.0
  0
LINE
  8
CI
 10
1.189952
 20
2.765534
 30
0.0
 11
-0.5793
 21
2.765534
 31
0.0
  0
LINE
  8
CI
 10
1.189952
 20
5.952486
 30
0.0
 11
-0.5793
 21
5.952486
 31
0.0
  0
LINE
  8
CI
 10
1.189952
 20
6.452486
 30
0.0
 11
-0.5793
 21
6.452486
 31
0.0
  0
LINE
  8
CI
 10
1.225152
 20
6.821564
 30
0.0
 11
-0.5793
 21
6.821564
 31
0.0
  0
LINE
  8
CI
 10
1.225152
 20
7.311564
 30
0.0
 11
-0.5793
 21
7.311564
 31
0.0
  0
LINE
  8
CI
 10
-1.9743
 20
6.452486
 30
0.0
 11
-1.9743
 21
5.952486
 31
0.0
  0
CIRCLE
  8
CI
 10
-1.5243
 20
5.814564
 30
0.0
 40
0.1775
  0
ARC
  8
CI
 10
-0.439847
 20
6.015064
 30
0.0
 40
0.459453
 50
155.91485
 51
204.08515
  0
LINE
  8
CI
 10
-0.8993
 20
6.537564
 30
0.0
 11
-0.8993
 21
5.867564
 31
0.0
  0
ARC
  8
CI
 10
-1.038754
 20
6.015064
 30
0.0
 40
0.459453
 50
335.91485
 51
24.08515
  0
LINE
  8
CI
 10
-0.410048
 20
6.452486
 30
0.0
 11
-0.410048
 21
5.952486
 31
0.0
  0
LINE
  8
CI
 10
-0.210048
 20
6.452486
 30
0.0
 11
-0.210048
 21
5.952486
 31
0.0
  0
LINE
  8
CI
 10
-0.5793
 20
6.537564
 30
0.0
 11
-0.5793
 21
5.867564
 31
0.0
  0
LINE
  8
CI
 10
-0.8993
 20
6.519439
 30
0.0
 11
-0.8993
 21
5.885689
 31
0.0
  0
LINE
  8
CI
 10
-0.010048
 20
6.452486
 30
0.0
 11
-0.010048
 21
5.952486
 31
0.0
  0
LINE
  8
CI
 10
0.189952
 20
6.452486
 30
0.0
 11
0.189952
 21
5.952486
 31
0.0
  0
LINE
  8
CI
 10
0.389952
 20
6.452486
 30
0.0
 11
0.389952
 21
5.952486
 31
0.0
  0
LINE
  8
CI
 10
0.589952
 20
6.452486
 30
0.0
 11
0.589952
 21
5.952486
 31
0.0
  0
LINE
  8
CI
 10
0.789952
 20
6.452486
 30
0.0
 11
0.789952
 21
5.952486
 31
0.0
  0
LINE
  8
SHAFT
 10
-0.8993
 20
7.634564
 30
0.0
 11
-0.8993
 21
5.634564
 31
0.0
  0
ARC
  8
SHAFT
 10
-1.5243
 20
5.814564
 30
0.0
 40
0.1875
 50
0.0
 51
180.0
  0
LINE
  8
OBJ
 10
-2.0243
 20
6.122486
 30
0.0
 11
-2.0243
 21
5.634564
 31
0.0
  0
LINE
  8
SHAFT
 10
-1.7743
 20
5.634564
 30
0.0
 11
-1.7743
 21
7.634564
 31
0.0
  0
LINE
  8
SHAFT
 10
-1.7743
 20
3.5
 30
0.0
 11
-0.8993
 21
3.5
 31
0.0
  0
LINE
  8
CI
 10
-2.025686
 20
2.935534
 30
0.0
 11
-2.5673
 21
2.935534
 31
0.0
  0
LINE
  8
CI
 10
-2.025686
 20
3.095534
 30
0.0
 11
-2.5673
 21
3.095534
 31
0.0
  0
LINE
  8
CI
 10
-2.5893
 20
3.073534
 30
0.0
 11
-2.5893
 21
2.957534
 31
0.0
  0
LINE
  8
CI
 10
-2.5893
 20
3.063034
 30
0.0
 11
-2.5893
 21
2.968034
 31
0.0
  0
ARC
  8
CI
 10
-2.5673
 20
2.957534
 30
0.0
 40
0.022
 50
180.0
 51
270.0
  0
ARC
  8
CI
 10
-2.5673
 20
3.073534
 30
0.0
 40
0.022
 50
90.0
 51
180.0
  0
LINE
  8
CI
 10
-1.67055
 20
3.49
 30
0.0
 11
-1.7018
 21
3.45875
 31
0.0
  0
LINE
  8
CI
 10
-1.37805
 20
3.49
 30
0.0
 11
-1.3468
 21
3.45875
 31
0.0
  0
LINE
  8
SHAFT
 10
-1.3368
 20
3.25
 30
0.0
 11
-1.3368
 21
3.5
 31
0.0
  0
LINE
  8
SHAFT
 10
-1.7118
 20
3.25
 30
0.0
 11
-1.7118
 21
3.5
 31
0.0
  0
LINE
  8
CI
 10
-1.771189
 20
2.765534
 30
0.0
 11
-2.023824
 21
2.765534
 31
0.0
  0
LINE
  8
CI
 10
-1.771189
 20
3.265534
 30
0.0
 11
-2.023824
 21
3.265534
 31
0.0
  0
LINE
  8
CI
 10
-1.871189
 20
2.845659
 30
0.0
 11
-1.871189
 21
3.185409
 31
0.0
  0
LINE
  8
CI
 10
-2.023824
 20
2.765534
 30
0.0
 11
-2.023824
 21
3.265534
 31
0.0
  0
LINE
  8
CI
 10
-1.971189
 20
3.265534
 30
0.0
 11
-1.971189
 21
2.765534
 31
0.0
  0
LINE
  8
CI
 10
-1.771189
 20
3.265534
 30
0.0
 11
-1.771189
 21
2.765534
 31
0.0
  0
LINE
  8
SHAFT
 10
-1.7118
 20
3.25
 30
0.0
 11
-1.3368
 21
3.25
 31
0.0
  0
LINE
  8
CI
 10
-1.7018
 20
3.25
 30
0.0
 11
-1.7018
 21
3.45875
 31
0.0
  0
LINE
  8
CI
 10
-1.3468
 20
3.25
 30
0.0
 11
-1.3468
 21
3.45875
 31
0.0
  0
LINE
  8
CI
 10
-1.67055
 20
3.49
 30
0.0
 11
-1.37805
 21
3.49
 31
0.0
  0
LINE
  8
CI
 10
-1.7743
 20
5.952486
 30
0.0
 11
-1.9743
 21
5.952486
 31
0.0
  0
POLYLINE
  8
CI
 66
     1
 10
0.0
 20
0.0
 30
0.0
 70
     1
  0
VERTEX
  8
CI
 10
-1.41805
 20
5.875907
 30
0.0
  0
VERTEX
  8
CI
 10
-1.5243
 20
5.937251
 30
0.0
  0
VERTEX
  8
CI
 10
-1.63055
 20
5.875907
 30
0.0
  0
VERTEX
  8
CI
 10
-1.63055
 20
5.753221
 30
0.0
  0
VERTEX
  8
CI
 10
-1.5243
 20
5.691877
 30
0.0
  0
VERTEX
  8
CI
 10
-1.41805
 20
5.753221
 30
0.0
  0
SEQEND
  8
CI
  0
LINE
  8
SHAFT
 10
-1.7118
 20
5.634564
 30
0.0
 11
-1.7118
 21
5.814564
 31
0.0
  0
LINE
  8
SHAFT
 10
-1.3368
 20
5.634564
 30
0.0
 11
-1.3368
 21
5.814564
 31
0.0
  0
LINE
  8
CI
 10
-0.8593
 20
3.226863
 30
0.0
 11
-0.6193
 21
3.226863
 31
0.0
  0
LINE
  8
CI
 10
-0.8593
 20
2.804363
 30
0.0
 11
-0.6193
 21
2.804363
 31
0.0
  0
LINE
  8
CI
 10
-0.8593
 20
3.438113
 30
0.0
 11
-0.6193
 21
3.438113
 31
0.0
  0
LINE
  8
CI
 10
-0.8993
 20
3.332488
 30
0.0
 11
-0.8993
 21
2.698738
 31
0.0
  0
ARC
  8
CI
 10
-0.321468
 20
3.015613
 30
0.0
 40
0.577832
 50
158.556062
 51
201.443938
  0
ARC
  8
CI
 10
-0.739842
 20
3.332488
 30
0.0
 40
0.159458
 50
138.516824
 51
221.483176
  0
LINE
  8
CI
 10
-0.5793
 20
3.332488
 30
0.0
 11
-0.5793
 21
2.698738
 31
0.0
  0
LINE
  8
CI
 10
-0.510048
 20
2.845659
 30
0.0
 11
-0.510048
 21
3.185409
 31
0.0
  0
LINE
  8
CI
 10
-0.310048
 20
2.845659
 30
0.0
 11
-0.310048
 21
3.185409
 31
0.0
  0
LINE
  8
CI
 10
-0.410048
 20
3.265534
 30
0.0
 11
-0.410048
 21
2.765534
 31
0.0
  0
ARC
  8
CI
 10
-1.157133
 20
3.015613
 30
0.0
 40
0.577832
 50
338.556062
 51
21.443938
  0
ARC
  8
CI
 10
-0.738759
 20
3.332488
 30
0.0
 40
0.159458
 50
318.516824
 51
41.483176
  0
LINE
  8
CI
 10
-0.210048
 20
3.265534
 30
0.0
 11
-0.210048
 21
2.765534
 31
0.0
  0
LINE
  8
CI
 10
-0.110048
 20
2.845659
 30
0.0
 11
-0.110048
 21
3.185409
 31
0.0
  0
LINE
  8
CI
 10
0.089952
 20
2.845659
 30
0.0
 11
0.089952
 21
3.185409
 31
0.0
  0
LINE
  8
CI
 10
0.289952
 20
2.845659
 30
0.0
 11
0.289952
 21
3.185409
 31
0.0
  0
LINE
  8
CI
 10
0.189952
 20
3.265534
 30
0.0
 11
0.189952
 21
2.765534
 31
0.0
  0
LINE
  8
CI
 10
-0.010048
 20
3.265534
 30
0.0
 11
-0.010048
 21
2.765534
 31
0.0
  0
LINE
  8
CI
 10
0.389952
 20
3.265534
 30
0.0
 11
0.389952
 21
2.765534
 31
0.0
  0
LINE
  8
CI
 10
0.489952
 20
2.845659
 30
0.0
 11
0.489952
 21
3.185409
 31
0.0
  0
LINE
  8
CI
 10
0.689952
 20
2.845659
 30
0.0
 11
0.689952
 21
3.185409
 31
0.0
  0
LINE
  8
CI
 10
0.789952
 20
3.265534
 30
0.0
 11
0.789952
 21
2.765534
 31
0.0
  0
LINE
  8
CI
 10
0.589952
 20
3.265534
 30
0.0
 11
0.589952
 21
2.765534
 31
0.0
  0
LINE
  8
CI
 10
-0.8593
 20
5.827564
 30
0.0
 11
-0.6193
 21
5.827564
 31
0.0
  0
LINE
  8
CI
 10
-1.074426
 20
5.354564
 30
0.0
 11
-0.538175
 21
5.354564
 31
0.0
  0
ARC
  8
CI
 10
-0.8063
 20
6.163353
 30
0.0
 40
0.808789
 50
257.231672
 51
282.768328
  0
LINE
  8
CI
 10
-1.1638
 20
5.374564
 30
0.0
 11
-1.1638
 21
5.634564
 31
0.0
  0
LINE
  8
CI
 10
-0.98505
 20
5.374564
 30
0.0
 11
-0.98505
 21
5.634564
 31
0.0
  0
ARC
  8
CI
 10
-1.074425
 20
5.564261
 30
0.0
 40
0.209697
 50
244.772745
 51
295.227255
  0
CIRCLE
  8
SHAFT
 10
-1.0873
 20
5.814564
 30
0.0
 40
0.132813
  0
CIRCLE
  8
SHAFT
 10
-1.0873
 20
5.814564
 30
0.0
 40
0.125
  0
LINE
  8
CI
 10
-0.8593
 20
5.827564
 30
0.0
 11
-0.8993
 21
5.867564
 31
0.0
  0
LINE
  8
CI
 10
-0.62755
 20
5.374564
 30
0.0
 11
-0.62755
 21
5.634564
 31
0.0
  0
LINE
  8
CI
 10
-0.4488
 20
5.374564
 30
0.0
 11
-0.4488
 21
5.634564
 31
0.0
  0
ARC
  8
CI
 10
-0.538175
 20
5.564261
 30
0.0
 40
0.209697
 50
244.772745
 51
295.227255
  0
LINE
  8
CI
 10
-0.6193
 20
5.827564
 30
0.0
 11
-0.5793
 21
5.867564
 31
0.0
  0
LINE
  8
CI
 10
-1.9743
 20
6.282486
 30
0.0
 11
-2.479504
 21
6.282486
 31
0.0
  0
LINE
  8
CI
 10
-1.9743
 20
6.122486
 30
0.0
 11
-2.479504
 21
6.122486
 31
0.0
  0
ARC
  8
CI
 10
-2.479504
 20
6.144226
 30
0.0
 40
0.02174
 50
180.0
 51
270.0
  0
ARC
  8
CI
 10
-2.479504
 20
6.260746
 30
0.0
 40
0.02174
 50
90.0
 51
180.0
  0
LINE
  8
CI
 10
-2.501244
 20
6.260746
 30
0.0
 11
-2.501244
 21
6.144226
 31
0.0
  0
LINE
  8
OBJ
 10
-2.0243
 20
6.821564
 30
0.0
 11
-2.0243
 21
6.282486
 31
0.0
  0
LINE
  8
CI
 10
-1.7743
 20
6.452486
 30
0.0
 11
-1.9743
 21
6.452486
 31
0.0
  0
LINE
  8
CI
 10
-1.8743
 20
6.032611
 30
0.0
 11
-1.8743
 21
6.372361
 31
0.0
  0
LINE
  8
CI
 10
-1.7743
 20
6.821564
 30
0.0
 11
-2.075803
 21
6.821564
 31
0.0
  0
LINE
  8
CI
 10
-1.7743
 20
7.311564
 30
0.0
 11
-2.075803
 21
7.311564
 31
0.0
  0
LINE
  8
CI
 10
-2.201763
 20
7.236564
 30
0.0
 11
-2.201763
 21
6.896564
 31
0.0
  0
POLYLINE
  8
CI
 66
     1
 10
0.0
 20
0.0
 30
0.0
  0
VERTEX
  8
CI
 10
-2.075803
 20
7.311564
 30
0.0
  0
VERTEX
  8
CI
 10
-2.075803
 20
6.821564
 30
0.0
  0
SEQEND
  8
CI
  0
LINE
  8
CI
 10
-2.137412
 20
7.236564
 30
0.0
 11
-2.137412
 21
6.896564
 31
0.0
  0
POLYLINE
  8
CI
 66
     1
 10
0.0
 20
0.0
 30
0.0
  0
VERTEX
  8
CI
 10
-1.941028
 20
6.821564
 30
0.0
  0
VERTEX
  8
CI
 10
-1.941028
 20
7.311564
 30
0.0
  0
SEQEND
  8
CI
  0
ARC
  8
CI
 10
-2.245243
 20
7.214824
 30
0.0
 40
0.02174
 50
90.0
 51
180.0
  0
ARC
  8
CI
 10
-2.245243
 20
6.918304
 30
0.0
 40
0.02174
 50
180.0
 51
270.0
  0
LINE
  8
CI
 10
-2.137412
 20
6.896564
 30
0.0
 11
-2.245243
 21
6.896564
 31
0.0
  0
LINE
  8
CI
 10
-2.137412
 20
6.896564
 30
0.0
 11
-2.075803
 21
6.821564
 31
0.0
  0
LINE
  8
CI
 10
-2.266984
 20
7.214824
 30
0.0
 11
-2.266984
 21
6.918304
 31
0.0
  0
LINE
  8
CI
 10
-1.889617
 20
6.898001
 30
0.0
 11
-1.889617
 21
7.235126
 31
0.0
  0
LINE
  8
CI
 10
-2.024392
 20
6.898001
 30
0.0
 11
-2.024392
 21
7.235126
 31
0.0
  0
LINE
  8
CI
 10
-2.137412
 20
7.236564
 30
0.0
 11
-2.245243
 21
7.236564
 31
0.0
  0
LINE
  8
CI
 10
-2.137412
 20
7.236564
 30
0.0
 11
-2.075803
 21
7.311564
 31
0.0
  0
LINE
  8
OBJ
 10
-2.0243
 20
7.634564
 30
0.0
 11
-2.0243
 21
7.311564
 31
0.0
  0
POLYLINE
  8
CI
 66
     1
 10
0.0
 20
0.0
 30
0.0
  0
VERTEX
  8
CI
 10
-1.806253
 20
6.821564
 30
0.0
  0
VERTEX
  8
CI
 10
-1.806253
 20
7.311564
 30
0.0
  0
SEQEND
  8
CI
  0
CIRCLE
  8
CI
 10
-1.5243
 20
7.454564
 30
0.0
 40
0.1775
  0
POLYLINE
  8
CI
 66
     1
 10
0.0
 20
0.0
 30
0.0
 70
     1
  0
VERTEX
  8
CI
 10
-1.41805
 20
7.393221
 30
0.0
  0
VERTEX
  8
CI
 10
-1.5243
 20
7.331877
 30
0.0
  0
VERTEX
  8
CI
 10
-1.63055
 20
7.393221
 30
0.0
  0
VERTEX
  8
CI
 10
-1.63055
 20
7.515907
 30
0.0
  0
VERTEX
  8
CI
 10
-1.5243
 20
7.577251
 30
0.0
  0
VERTEX
  8
CI
 10
-1.41805
 20
7.515907
 30
0.0
  0
SEQEND
  8
CI
  0
ARC
  8
SHAFT
 10
-1.5243
 20
7.454564
 30
0.0
 40
0.1875
 50
180.0
 51
0.0
  0
LINE
  8
SHAFT
 10
-1.7118
 20
7.634564
 30
0.0
 11
-1.7118
 21
7.454564
 31
0.0
  0
LINE
  8
SHAFT
 10
-1.3368
 20
7.634564
 30
0.0
 11
-1.3368
 21
7.454564
 31
0.0
  0
LINE
  8
CI
 10
-0.8993
 20
7.383439
 30
0.0
 11
-0.8993
 21
6.749689
 31
0.0
  0
LINE
  8
CI
 10
-0.5793
 20
7.401564
 30
0.0
 11
-0.5793
 21
6.731564
 31
0.0
  0
ARC
  8
CI
 10
-1.038754
 20
6.879064
 30
0.0
 40
0.459453
 50
335.91485
 51
24.08515
  0
LINE
  8
CI
 10
-0.8993
 20
7.401564
 30
0.0
 11
-0.8993
 21
6.731564
 31
0.0
  0
ARC
  8
CI
 10
-0.439847
 20
6.879064
 30
0.0
 40
0.459453
 50
155.91485
 51
204.08515
  0
LINE
  8
CI
 10
-0.8593
 20
6.691564
 30
0.0
 11
-0.6193
 21
6.691564
 31
0.0
  0
LINE
  8
CI
 10
-0.8593
 20
6.202564
 30
0.0
 11
-0.6193
 21
6.202564
 31
0.0
  0
LINE
  8
CI
 10
-0.8593
 20
6.577564
 30
0.0
 11
-0.6193
 21
6.577564
 31
0.0
  0
ARC
  8
CI
 10
-0.439847
 20
6.390064
 30
0.0
 40
0.459453
 50
155.91485
 51
204.08515
  0
LINE
  8
CI
 10
-0.8593
 20
6.691564
 30
0.0
 11
-0.8993
 21
6.731564
 31
0.0
  0
LINE
  8
CI
 10
-0.8593
 20
6.577564
 30
0.0
 11
-0.8993
 21
6.537564
 31
0.0
  0
ARC
  8
CI
 10
-1.038754
 20
6.390064
 30
0.0
 40
0.459453
 50
335.91485
 51
24.08515
  0
LINE
  8
CI
 10
-0.510048
 20
6.032611
 30
0.0
 11
-0.510048
 21
6.372361
 31
0.0
  0
LINE
  8
CI
 10
-0.310048
 20
6.032611
 30
0.0
 11
-0.310048
 21
6.372361
 31
0.0
  0
LINE
  8
CI
 10
-0.6193
 20
6.691564
 30
0.0
 11
-0.5793
 21
6.731564
 31
0.0
  0
LINE
  8
CI
 10
-0.6193
 20
6.577564
 30
0.0
 11
-0.5793
 21
6.537564
 31
0.0
  0
LINE
  8
CI
 10
-0.8593
 20
7.441564
 30
0.0
 11
-0.6193
 21
7.441564
 31
0.0
  0
LINE
  8
CI
 10
-0.8593
 20
7.066564
 30
0.0
 11
-0.6193
 21
7.066564
 31
0.0
  0
ARC
  8
CI
 10
-0.439847
 20
7.254064
 30
0.0
 40
0.459453
 50
155.91485
 51
204.08515
  0
CIRCLE
  8
SHAFT
 10
-1.0873
 20
7.454564
 30
0.0
 40
0.125
  0
CIRCLE
  8
SHAFT
 10
-1.0873
 20
7.454564
 30
0.0
 40
0.132813
  0
LINE
  8
CI
 10
-0.8593
 20
7.441564
 30
0.0
 11
-0.8993
 21
7.401564
 31
0.0
  0
POLYLINE
  8
CI
 66
     1
 10
0.0
 20
0.0
 30
0.0
  0
VERTEX
  8
CI
 10
-0.531307
 20
6.821564
 30
0.0
  0
VERTEX
  8
CI
 10
-0.531307
 20
7.311564
 30
0.0
  0
SEQEND
  8
CI
  0
POLYLINE
  8
CI
 66
     1
 10
0.0
 20
0.0
 30
0.0
  0
VERTEX
  8
CI
 10
-0.364579
 20
6.821564
 30
0.0
  0
VERTEX
  8
CI
 10
-0.364579
 20
7.311564
 30
0.0
  0
SEQEND
  8
CI
  0
ARC
  8
CI
 10
-1.038754
 20
7.254064
 30
0.0
 40
0.459453
 50
335.91485
 51
24.08515
  0
LINE
  8
CI
 10
-0.447943
 20
6.898001
 30
0.0
 11
-0.447943
 21
7.235126
 31
0.0
  0
LINE
  8
CI
 10
-0.281216
 20
6.898001
 30
0.0
 11
-0.281216
 21
7.235126
 31
0.0
  0
LINE
  8
CI
 10
-0.6193
 20
7.441564
 30
0.0
 11
-0.5793
 21
7.401564
 31
0.0
  0
LINE
  8
CI
 10
-0.110048
 20
6.032611
 30
0.0
 11
-0.110048
 21
6.372361
 31
0.0
  0
LINE
  8
CI
 10
0.289952
 20
6.032611
 30
0.0
 11
0.289952
 21
6.372361
 31
0.0
  0
LINE
  8
CI
 10
0.089952
 20
6.032611
 30
0.0
 11
0.089952
 21
6.372361
 31
0.0
  0
LINE
  8
CI
 10
0.489952
 20
6.032611
 30
0.0
 11
0.489952
 21
6.372361
 31
0.0
  0
LINE
  8
CI
 10
0.689952
 20
6.032611
 30
0.0
 11
0.689952
 21
6.372361
 31
0.0
  0
POLYLINE
  8
CI
 66
     1
 10
0.0
 20
0.0
 30
0.0
  0
VERTEX
  8
CI
 10
-0.197852
 20
6.821564
 30
0.0
  0
VERTEX
  8
CI
 10
-0.197852
 20
7.311564
 30
0.0
  0
SEQEND
  8
CI
  0
POLYLINE
  8
CI
 66
     1
 10
0.0
 20
0.0
 30
0.0
  0
VERTEX
  8
CI
 10
-0.031124
 20
6.821564
 30
0.0
  0
VERTEX
  8
CI
 10
-0.031124
 20
7.311564
 30
0.0
  0
SEQEND
  8
CI
  0
POLYLINE
  8
CI
 66
     1
 10
0.0
 20
0.0
 30
0.0
  0
VERTEX
  8
CI
 10
0.135603
 20
6.821564
 30
0.0
  0
VERTEX
  8
CI
 10
0.135603
 20
7.311564
 30
0.0
  0
SEQEND
  8
CI
  0
POLYLINE
  8
CI
 66
     1
 10
0.0
 20
0.0
 30
0.0
  0
VERTEX
  8
CI
 10
0.30233
 20
6.821564
 30
0.0
  0
VERTEX
  8
CI
 10
0.30233
 20
7.311564
 30
0.0
  0
SEQEND
  8
CI
  0
LINE
  8
CI
 10
-0.114488
 20
6.898001
 30
0.0
 11
-0.114488
 21
7.235126
 31
0.0
  0
LINE
  8
CI
 10
0.052239
 20
6.898001
 30
0.0
 11
0.052239
 21
7.235126
 31
0.0
  0
LINE
  8
CI
 10
0.218967
 20
6.898001
 30
0.0
 11
0.218967
 21
7.235126
 31
0.0
  0
POLYLINE
  8
CI
 66
     1
 10
0.0
 20
0.0
 30
0.0
  0
VERTEX
  8
CI
 10
0.469058
 20
6.821564
 30
0.0
  0
VERTEX
  8
CI
 10
0.469058
 20
7.311564
 30
0.0
  0
SEQEND
  8
CI
  0
POLYLINE
  8
CI
 66
     1
 10
0.0
 20
0.0
 30
0.0
  0
VERTEX
  8
CI
 10
0.635785
 20
6.821564
 30
0.0
  0
VERTEX
  8
CI
 10
0.635785
 20
7.311564
 30
0.0
  0
SEQEND
  8
CI
  0
POLYLINE
  8
CI
 66
     1
 10
0.0
 20
0.0
 30
0.0
  0
VERTEX
  8
CI
 10
0.802513
 20
6.821564
 30
0.0
  0
VERTEX
  8
CI
 10
0.802513
 20
7.311564
 30
0.0
  0
SEQEND
  8
CI
  0
LINE
  8
CI
 10
0.385694
 20
6.898001
 30
0.0
 11
0.385694
 21
7.235126
 31
0.0
  0
LINE
  8
CI
 10
0.552421
 20
6.898001
 30
0.0
 11
0.552421
 21
7.235126
 31
0.0
  0
LINE
  8
CI
 10
0.719149
 20
6.898001
 30
0.0
 11
0.719149
 21
7.235126
 31
0.0
  0
LINE
  8
CI
 10
1.189952
 20
6.452486
 30
0.0
 11
1.189952
 21
5.952486
 31
0.0
  0
LINE
  8
CI
 10
0.989952
 20
6.452486
 30
0.0
 11
0.989952
 21
5.952486
 31
0.0
  0
POLYLINE
  8
CI
 66
     1
 10
0.0
 20
0.0
 30
0.0
  0
VERTEX
  8
CI
 10
2.77271
 20
5.957564
 30
0.0
  0
VERTEX
  8
CI
 10
2.77271
 20
6.447564
 30
0.0
  0
SEQEND
  8
CI
  0
POLYLINE
  8
CI
 66
     1
 10
0.0
 20
0.0
 30
0.0
  0
VERTEX
  8
CI
 10
2.939437
 20
5.957564
 30
0.0
  0
VERTEX
  8
CI
 10
2.939437
 20
6.447564
 30
0.0
  0
SEQEND
  8
CI
  0
LINE
  8
CI
 10
2.648335
 20
6.031064
 30
0.0
 11
2.69077
 21
5.957564
 31
0.0
  0
POLYLINE
  8
CI
 66
     1
 10
0.0
 20
0.0
 30
0.0
  0
VERTEX
  8
CI
 10
3.106164
 20
5.957564
 30
0.0
  0
VERTEX
  8
CI
 10
3.106164
 20
6.447564
 30
0.0
  0
SEQEND
  8
CI
  0
POLYLINE
  8
CI
 66
     1
 10
0.0
 20
0.0
 30
0.0
  0
VERTEX
  8
CI
 10
3.272892
 20
5.957564
 30
0.0
  0
VERTEX
  8
CI
 10
3.272892
 20
6.447564
 30
0.0
  0
SEQEND
  8
CI
  0
POLYLINE
  8
CI
 66
     1
 10
0.0
 20
0.0
 30
0.0
  0
VERTEX
  8
CI
 10
3.439619
 20
5.957564
 30
0.0
  0
VERTEX
  8
CI
 10
3.439619
 20
6.447564
 30
0.0
  0
SEQEND
  8
CI
  0
POLYLINE
  8
CI
 66
     1
 10
0.0
 20
0.0
 30
0.0
  0
VERTEX
  8
CI
 10
3.606347
 20
5.957564
 30
0.0
  0
VERTEX
  8
CI
 10
3.606347
 20
6.447564
 30
0.0
  0
SEQEND
  8
CI
  0
POLYLINE
  8
CI
 66
     1
 10
0.0
 20
0.0
 30
0.0
  0
VERTEX
  8
CI
 10
3.773074
 20
5.957564
 30
0.0
  0
VERTEX
  8
CI
 10
3.773074
 20
6.447564
 30
0.0
  0
SEQEND
  8
CI
  0
POLYLINE
  8
CI
 66
     1
 10
0.0
 20
0.0
 30
0.0
  0
VERTEX
  8
CI
 10
3.939801
 20
5.957564
 30
0.0
  0
VERTEX
  8
CI
 10
3.939801
 20
6.447564
 30
0.0
  0
SEQEND
  8
CI
  0
POLYLINE
  8
CI
 66
     1
 10
0.0
 20
0.0
 30
0.0
  0
VERTEX
  8
CI
 10
4.106529
 20
5.957564
 30
0.0
  0
VERTEX
  8
CI
 10
4.106529
 20
6.447564
 30
0.0
  0
SEQEND
  8
CI
  0
LINE
  8
CI
 10
4.9757
 20
6.519439
 30
0.0
 11
4.9757
 21
5.885689
 31
0.0
  0
LINE
  8
CI
 10
4.6557
 20
6.537564
 30
0.0
 11
4.6557
 21
5.867564
 31
0.0
  0
ARC
  8
CI
 10
5.115153
 20
6.015064
 30
0.0
 40
0.459453
 50
155.91485
 51
204.08515
  0
LINE
  8
CI
 10
4.9757
 20
6.537564
 30
0.0
 11
4.9757
 21
5.867564
 31
0.0
  0
ARC
  8
CI
 10
4.516246
 20
6.015064
 30
0.0
 40
0.459453
 50
335.91485
 51
24.08515
  0
POLYLINE
  8
CI
 66
     1
 10
0.0
 20
0.0
 30
0.0
  0
VERTEX
  8
CI
 10
4.273256
 20
5.957564
 30
0.0
  0
VERTEX
  8
CI
 10
4.273256
 20
6.447564
 30
0.0
  0
SEQEND
  8
CI
  0
POLYLINE
  8
CI
 66
     1
 10
0.0
 20
0.0
 30
0.0
  0
VERTEX
  8
CI
 10
4.439984
 20
5.957564
 30
0.0
  0
VERTEX
  8
CI
 10
4.439984
 20
6.447564
 30
0.0
  0
SEQEND
  8
CI
  0
POLYLINE
  8
CI
 66
     1
 10
0.0
 20
0.0
 30
0.0
  0
VERTEX
  8
CI
 10
4.606711
 20
5.957564
 30
0.0
  0
VERTEX
  8
CI
 10
4.606711
 20
6.447564
 30
0.0
  0
SEQEND
  8
CI
  0
LINE
  8
SHAFT
 10
4.9757
 20
7.634564
 30
0.0
 11
4.9757
 21
5.634564
 31
0.0
  0
LINE
  8
CI
 10
2.69077
 20
5.957564
 30
0.0
 11
4.6557
 21
5.957564
 31
0.0
  0
LINE
  8
CI
 10
2.702193
 20
2.785
 30
0.0
 11
4.6557
 21
2.785
 31
0.0
  0
LINE
  8
CI
 10
2.702193
 20
3.275
 30
0.0
 11
4.6557
 21
3.275
 31
0.0
  0
LINE
  8
CI
 10
1.564952
 20
2.797534
 30
0.0
 11
1.339952
 21
2.797534
 31
0.0
  0
LINE
  8
CI
 10
1.564952
 20
3.233534
 30
0.0
 11
1.339952
 21
3.233534
 31
0.0
  0
LINE
  8
CI
 10
0.889952
 20
2.845659
 30
0.0
 11
0.889952
 21
3.185409
 31
0.0
  0
LINE
  8
CI
 10
1.089952
 20
2.845659
 30
0.0
 11
1.089952
 21
3.185409
 31
0.0
  0
LINE
  8
CI
 10
0.989952
 20
3.265534
 30
0.0
 11
0.989952
 21
2.765534
 31
0.0
  0
LINE
  8
CI
 10
1.264952
 20
3.158034
 30
0.0
 11
1.264952
 21
2.873034
 31
0.0
  0
LINE
  8
CI
 10
1.339952
 20
3.233534
 30
0.0
 11
1.339952
 21
2.797534
 31
0.0
  0
LINE
  8
CI
 10
1.189952
 20
3.265534
 30
0.0
 11
1.189952
 21
2.765534
 31
0.0
  0
LINE
  8
CI
 10
1.264952
 20
2.873034
 30
0.0
 11
1.189952
 21
2.797534
 31
0.0
  0
LINE
  8
CI
 10
1.339952
 20
2.797534
 30
0.0
 11
1.264952
 21
2.873034
 31
0.0
  0
LINE
  8
CI
 10
1.264952
 20
3.158034
 30
0.0
 11
1.189952
 21
3.233534
 31
0.0
  0
LINE
  8
CI
 10
1.339952
 20
3.233534
 30
0.0
 11
1.264952
 21
3.158034
 31
0.0
  0
LINE
  8
CI
 10
1.564952
 20
3.233534
 30
0.0
 11
1.564952
 21
2.797534
 31
0.0
  0
LINE
  8
CI
 10
2.472258
 20
2.8585
 30
0.0
 11
2.441008
 21
2.8738
 31
0.0
  0
LINE
  8
CI
 10
2.472258
 20
3.2015
 30
0.0
 11
2.441008
 21
3.1862
 31
0.0
  0
LINE
  8
CI
 10
2.347258
 20
2.8585
 30
0.0
 11
2.347258
 21
3.2015
 31
0.0
  0
LINE
  8
CI
 10
2.441008
 20
2.8738
 30
0.0
 11
2.441008
 21
3.1862
 31
0.0
  0
LINE
  8
CI
 10
2.409758
 20
2.8585
 30
0.0
 11
2.409758
 21
3.2015
 31
0.0
  0
LINE
  8
CI
 10
2.159758
 20
2.9054
 30
0.0
 11
2.159758
 21
3.1546
 31
0.0
  0
POLYLINE
  8
CI
 66
     1
 10
0.0
 20
0.0
 30
0.0
 40
0.00375
 41
0.00375
  0
VERTEX
  8
CI
 10
2.200586
 20
2.861437
 30
0.0
  0
VERTEX
  8
CI
 10
2.200586
 20
3.198562
 30
0.0
  0
SEQEND
  8
CI
  0
ARC
  8
CI
 10
2.32069
 20
3.03
 30
0.0
 40
0.160932
 50
151.130789
 51
208.869211
  0
LINE
  8
CI
 10
2.099758
 20
2.9875
 30
0.0
 11
2.099758
 21
3.0725
 31
0.0
  0
ARC
  8
CI
 10
2.224748
 20
2.9054
 30
0.0
 40
0.06499
 50
133.809396
 51
226.190604
  0
LINE
  8
CI
 10
2.116631
 20
2.9675
 30
0.0
 11
2.116631
 21
2.967746
 31
0.0
  0
ARC
  8
CI
 10
2.119758
 20
2.9875
 30
0.0
 40
0.02
 50
180.0
 51
270.0
  0
LINE
  8
CI
 10
2.159758
 20
2.9675
 30
0.0
 11
2.119758
 21
2.9675
 31
0.0
  0
LINE
  8
CI
 10
2.347258
 20
2.9523
 30
0.0
 11
2.179758
 21
2.9523
 31
0.0
  0
LINE
  8
CI
 10
2.409758
 20
2.8585
 30
0.0
 11
2.179758
 21
2.8585
 31
0.0
  0
LINE
  8
CI
 10
2.441008
 20
2.8738
 30
0.0
 11
2.409758
 21
2.8585
 31
0.0
  0
ARC
  8
CI
 10
2.224748
 20
3.1546
 30
0.0
 40
0.06499
 50
133.809396
 51
226.190604
  0
ARC
  8
CI
 10
2.119758
 20
3.0725
 30
0.0
 40
0.02
 50
90.0
 51
180.0
  0
LINE
  8
CI
 10
2.159758
 20
3.0925
 30
0.0
 11
2.119758
 21
3.0925
 31
0.0
  0
LINE
  8
CI
 10
2.116631
 20
3.092254
 30
0.0
 11
2.116631
 21
3.0925
 31
0.0
  0
LINE
  8
CI
 10
2.347258
 20
3.1077
 30
0.0
 11
2.179758
 21
3.1077
 31
0.0
  0
LINE
  8
CI
 10
2.409758
 20
3.2015
 30
0.0
 11
2.179758
 21
3.2015
 31
0.0
  0
LINE
  8
CI
 10
2.441008
 20
3.1862
 30
0.0
 11
2.409758
 21
3.2015
 31
0.0
  0
LINE
  8
CI
 10
2.472258
 20
2.8585
 30
0.0
 11
2.472258
 21
3.2015
 31
0.0
  0
LINE
  8
CI
 10
2.700768
 20
2.861437
 30
0.0
 11
2.700768
 21
3.198562
 31
0.0
  0
LINE
  8
CI
 10
2.867496
 20
2.861437
 30
0.0
 11
2.867496
 21
3.198562
 31
0.0
  0
LINE
  8
CI
 10
2.659758
 20
2.8585
 30
0.0
 11
2.659758
 21
3.2015
 31
0.0
  0
POLYLINE
  8
CI
 66
     1
 10
0.0
 20
0.0
 30
0.0
  0
VERTEX
  8
CI
 10
2.950859
 20
2.785
 30
0.0
  0
VERTEX
  8
CI
 10
2.950859
 20
3.275
 30
0.0
  0
SEQEND
  8
CI
  0
POLYLINE
  8
CI
 66
     1
 10
0.0
 20
0.0
 30
0.0
  0
VERTEX
  8
CI
 10
2.784132
 20
2.785
 30
0.0
  0
VERTEX
  8
CI
 10
2.784132
 20
3.275
 30
0.0
  0
SEQEND
  8
CI
  0
LINE
  8
CI
 10
2.659758
 20
2.8585
 30
0.0
 11
2.472258
 21
2.8585
 31
0.0
  0
LINE
  8
CI
 10
2.659758
 20
2.8585
 30
0.0
 11
2.702193
 21
2.785
 31
0.0
  0
LINE
  8
CI
 10
2.659758
 20
3.2015
 30
0.0
 11
2.472258
 21
3.2015
 31
0.0
  0
LINE
  8
CI
 10
2.659758
 20
3.2015
 30
0.0
 11
2.702193
 21
3.275
 31
0.0
  0
LINE
  8
CI
 10
3.034223
 20
2.861437
 30
0.0
 11
3.034223
 21
3.198562
 31
0.0
  0
LINE
  8
CI
 10
3.200951
 20
2.861437
 30
0.0
 11
3.200951
 21
3.198562
 31
0.0
  0
LINE
  8
CI
 10
3.367678
 20
2.861437
 30
0.0
 11
3.367678
 21
3.198562
 31
0.0
  0
POLYLINE
  8
CI
 66
     1
 10
0.0
 20
0.0
 30
0.0
  0
VERTEX
  8
CI
 10
3.451042
 20
2.785
 30
0.0
  0
VERTEX
  8
CI
 10
3.451042
 20
3.275
 30
0.0
  0
SEQEND
  8
CI
  0
POLYLINE
  8
CI
 66
     1
 10
0.0
 20
0.0
 30
0.0
  0
VERTEX
  8
CI
 10
3.284314
 20
2.785
 30
0.0
  0
VERTEX
  8
CI
 10
3.284314
 20
3.275
 30
0.0
  0
SEQEND
  8
CI
  0
POLYLINE
  8
CI
 66
     1
 10
0.0
 20
0.0
 30
0.0
  0
VERTEX
  8
CI
 10
3.117587
 20
2.785
 30
0.0
  0
VERTEX
  8
CI
 10
3.117587
 20
3.275
 30
0.0
  0
SEQEND
  8
CI
  0
LINE
  8
CI
 10
3.534405
 20
2.861437
 30
0.0
 11
3.534405
 21
3.198562
 31
0.0
  0
LINE
  8
CI
 10
3.701133
 20
2.861437
 30
0.0
 11
3.701133
 21
3.198562
 31
0.0
  0
LINE
  8
CI
 10
3.86786
 20
2.861437
 30
0.0
 11
3.86786
 21
3.198562
 31
0.0
  0
LINE
  8
CI
 10
4.034588
 20
2.861437
 30
0.0
 11
4.034588
 21
3.198562
 31
0.0
  0
POLYLINE
  8
CI
 66
     1
 10
0.0
 20
0.0
 30
0.0
  0
VERTEX
  8
CI
 10
3.951224
 20
2.785
 30
0.0
  0
VERTEX
  8
CI
 10
3.951224
 20
3.275
 30
0.0
  0
SEQEND
  8
CI
  0
POLYLINE
  8
CI
 66
     1
 10
0.0
 20
0.0
 30
0.0
  0
VERTEX
  8
CI
 10
3.784497
 20
2.785
 30
0.0
  0
VERTEX
  8
CI
 10
3.784497
 20
3.275
 30
0.0
  0
SEQEND
  8
CI
  0
POLYLINE
  8
CI
 66
     1
 10
0.0
 20
0.0
 30
0.0
  0
VERTEX
  8
CI
 10
3.617769
 20
2.785
 30
0.0
  0
VERTEX
  8
CI
 10
3.617769
 20
3.275
 30
0.0
  0
SEQEND
  8
CI
  0
POLYLINE
  8
CI
 66
     1
 10
0.0
 20
0.0
 30
0.0
  0
VERTEX
  8
CI
 10
4.117951
 20
2.785
 30
0.0
  0
VERTEX
  8
CI
 10
4.117951
 20
3.275
 30
0.0
  0
SEQEND
  8
CI
  0
LINE
  8
CI
 10
4.201315
 20
2.861437
 30
0.0
 11
4.201315
 21
3.198562
 31
0.0
  0
LINE
  8
CI
 10
4.368042
 20
2.861437
 30
0.0
 11
4.368042
 21
3.198562
 31
0.0
  0
LINE
  8
CI
 10
4.53477
 20
2.861437
 30
0.0
 11
4.53477
 21
3.198562
 31
0.0
  0
POLYLINE
  8
CI
 66
     1
 10
0.0
 20
0.0
 30
0.0
  0
VERTEX
  8
CI
 10
4.451406
 20
2.785
 30
0.0
  0
VERTEX
  8
CI
 10
4.451406
 20
3.275
 30
0.0
  0
SEQEND
  8
CI
  0
POLYLINE
  8
CI
 66
     1
 10
0.0
 20
0.0
 30
0.0
  0
VERTEX
  8
CI
 10
4.284679
 20
2.785
 30
0.0
  0
VERTEX
  8
CI
 10
4.284679
 20
3.275
 30
0.0
  0
SEQEND
  8
CI
  0
LINE
  8
CI
 10
4.9757
 20
3.346875
 30
0.0
 11
4.9757
 21
2.713125
 31
0.0
  0
LINE
  8
CI
 10
4.6557
 20
3.346875
 30
0.0
 11
4.6557
 21
2.713125
 31
0.0
  0
ARC
  8
CI
 10
5.233532
 20
3.03
 30
0.0
 40
0.577832
 50
158.556062
 51
201.443938
  0
POLYLINE
  8
CI
 66
     1
 10
0.0
 20
0.0
 30
0.0
  0
VERTEX
  8
CI
 10
4.618134
 20
2.785
 30
0.0
  0
VERTEX
  8
CI
 10
4.618134
 20
3.275
 30
0.0
  0
SEQEND
  8
CI
  0
ARC
  8
CI
 10
4.397867
 20
3.03
 30
0.0
 40
0.577832
 50
338.556062
 51
21.443938
  0
LINE
  8
CI
 10
4.6957
 20
2.81875
 30
0.0
 11
4.9357
 21
2.81875
 31
0.0
  0
LINE
  8
CI
 10
4.6957
 20
3.24125
 30
0.0
 11
4.9357
 21
3.24125
 31
0.0
  0
LINE
  8
CI
 10
4.6957
 20
3.4525
 30
0.0
 11
4.9357
 21
3.4525
 31
0.0
  0
ARC
  8
CI
 10
4.815158
 20
3.346875
 30
0.0
 40
0.159458
 50
138.516824
 51
221.483176
  0
ARC
  8
CI
 10
4.816241
 20
3.346875
 30
0.0
 40
0.159458
 50
318.516824
 51
41.483176
  0
ARC
  8
CI
 10
4.614575
 20
5.564261
 30
0.0
 40
0.209697
 50
244.772745
 51
295.227255
  0
LINE
  8
CI
 10
4.5252
 20
5.374564
 30
0.0
 11
4.5252
 21
5.634564
 31
0.0
  0
LINE
  8
CI
 10
4.70395
 20
5.374564
 30
0.0
 11
4.70395
 21
5.634564
 31
0.0
  0
LINE
  8
CI
 10
5.06145
 20
5.374564
 30
0.0
 11
5.06145
 21
5.634564
 31
0.0
  0
ARC
  8
CI
 10
4.8827
 20
6.163353
 30
0.0
 40
0.808789
 50
257.231672
 51
282.768328
  0
LINE
  8
CI
 10
4.70395
 20
5.354564
 30
0.0
 11
5.06145
 21
5.354564
 31
0.0
  0
LINE
  8
CI
 10
4.614575
 20
5.354564
 30
0.0
 11
4.70395
 21
5.354564
 31
0.0
  0
LINE
  8
CI
 10
4.9357
 20
5.827564
 30
0.0
 11
4.6957
 21
5.827564
 31
0.0
  0
LINE
  8
CI
 10
4.6957
 20
5.827564
 30
0.0
 11
4.6557
 21
5.867564
 31
0.0
  0
LINE
  8
CI
 10
4.9357
 20
5.827564
 30
0.0
 11
4.9757
 21
5.867564
 31
0.0
  0
LINE
  8
CI
 10
2.69077
 20
6.447564
 30
0.0
 11
4.6557
 21
6.447564
 31
0.0
  0
LINE
  8
CI
 10
2.886447
 20
6.816642
 30
0.0
 11
4.6557
 21
6.816642
 31
0.0
  0
LINE
  8
CI
 10
2.886447
 20
7.316642
 30
0.0
 11
4.6557
 21
7.316642
 31
0.0
  0
LINE
  8
CI
 10
1.564952
 20
5.984486
 30
0.0
 11
1.339952
 21
5.984486
 31
0.0
  0
LINE
  8
CI
 10
1.564952
 20
6.420486
 30
0.0
 11
1.339952
 21
6.420486
 31
0.0
  0
LINE
  8
CI
 10
1.339952
 20
6.420486
 30
0.0
 11
1.339952
 21
5.984486
 31
0.0
  0
LINE
  8
CI
 10
1.264952
 20
6.344986
 30
0.0
 11
1.189952
 21
6.420486
 31
0.0
  0
LINE
  8
CI
 10
1.339952
 20
6.420486
 30
0.0
 11
1.264952
 21
6.344986
 31
0.0
  0
LINE
  8
CI
 10
0.889952
 20
6.032611
 30
0.0
 11
0.889952
 21
6.372361
 31
0.0
  0
LINE
  8
CI
 10
1.089952
 20
6.032611
 30
0.0
 11
1.089952
 21
6.372361
 31
0.0
  0
LINE
  8
CI
 10
1.264952
 20
6.344986
 30
0.0
 11
1.264952
 21
6.059986
 31
0.0
  0
LINE
  8
CI
 10
1.264952
 20
6.059986
 30
0.0
 11
1.189952
 21
5.984486
 31
0.0
  0
LINE
  8
CI
 10
1.339952
 20
5.984486
 30
0.0
 11
1.264952
 21
6.059986
 31
0.0
  0
LINE
  8
CI
 10
1.564952
 20
6.420486
 30
0.0
 11
1.564952
 21
5.984486
 31
0.0
  0
LINE
  8
CI
 10
1.267588
 20
6.895064
 30
0.0
 11
1.455088
 21
6.895064
 31
0.0
  0
LINE
  8
CI
 10
1.267588
 20
7.238064
 30
0.0
 11
1.455088
 21
7.238064
 31
0.0
  0
LINE
  8
CI
 10
1.267588
 20
7.238064
 30
0.0
 11
1.267588
 21
6.895064
 31
0.0
  0
POLYLINE
  8
CI
 66
     1
 10
0.0
 20
0.0
 30
0.0
  0
VERTEX
  8
CI
 10
0.96924
 20
6.821564
 30
0.0
  0
VERTEX
  8
CI
 10
0.96924
 20
7.311564
 30
0.0
  0
SEQEND
  8
CI
  0
POLYLINE
  8
CI
 66
     1
 10
0.0
 20
0.0
 30
0.0
  0
VERTEX
  8
CI
 10
1.135967
 20
6.821564
 30
0.0
  0
VERTEX
  8
CI
 10
1.135967
 20
7.311564
 30
0.0
  0
SEQEND
  8
CI
  0
LINE
  8
CI
 10
0.885876
 20
6.898001
 30
0.0
 11
0.885876
 21
7.235126
 31
0.0
  0
LINE
  8
CI
 10
1.052604
 20
6.898001
 30
0.0
 11
1.052604
 21
7.235126
 31
0.0
  0
LINE
  8
CI
 10
1.219331
 20
6.898001
 30
0.0
 11
1.219331
 21
7.235126
 31
0.0
  0
LINE
  8
CI
 10
1.267588
 20
6.895064
 30
0.0
 11
1.225152
 21
6.821564
 31
0.0
  0
LINE
  8
CI
 10
1.267588
 20
7.238064
 30
0.0
 11
1.225152
 21
7.311564
 31
0.0
  0
LINE
  8
CI
 10
1.580088
 20
7.238064
 30
0.0
 11
1.580088
 21
6.895064
 31
0.0
  0
LINE
  8
CI
 10
1.517588
 20
7.238064
 30
0.0
 11
1.517588
 21
6.895064
 31
0.0
  0
LINE
  8
CI
 10
1.455088
 20
7.238064
 30
0.0
 11
1.455088
 21
6.895064
 31
0.0
  0
LINE
  8
CI
 10
1.455088
 20
7.238064
 30
0.0
 11
1.486338
 21
7.222764
 31
0.0
  0
ARC
  8
CI
 10
1.702597
 20
7.191164
 30
0.0
 40
0.06499
 50
313.809396
 51
46.190604
  0
LINE
  8
CI
 10
1.486338
 20
7.222764
 30
0.0
 11
1.517588
 21
7.238064
 31
0.0
  0
LINE
  8
CI
 10
1.517588
 20
6.895064
 30
0.0
 11
1.747588
 21
6.895064
 31
0.0
  0
LINE
  8
CI
 10
1.580088
 20
7.144264
 30
0.0
 11
1.747588
 21
7.144264
 31
0.0
  0
LINE
  8
CI
 10
1.580088
 20
6.988864
 30
0.0
 11
1.747588
 21
6.988864
 31
0.0
  0
LINE
  8
CI
 10
1.486338
 20
7.222764
 30
0.0
 11
1.486338
 21
6.910364
 31
0.0
  0
LINE
  8
CI
 10
1.455088
 20
6.895064
 30
0.0
 11
1.486338
 21
6.910364
 31
0.0
  0
LINE
  8
CI
 10
1.486338
 20
6.910364
 30
0.0
 11
1.517588
 21
6.895064
 31
0.0
  0
ARC
  8
CI
 10
1.702597
 20
6.941964
 30
0.0
 40
0.06499
 50
313.809396
 51
46.190604
  0
ARC
  8
CI
 10
1.606655
 20
7.066564
 30
0.0
 40
0.160932
 50
331.130789
 51
28.869211
  0
LINE
  8
CI
 10
1.807588
 20
7.12931
 30
0.0
 11
1.807588
 21
7.129064
 31
0.0
  0
ARC
  8
CI
 10
1.804461
 20
7.02431
 30
0.0
 40
0.02
 50
270.0
 51
0.0
  0
ARC
  8
CI
 10
1.804461
 20
7.10931
 30
0.0
 40
0.02
 50
0.0
 51
90.0
  0
LINE
  8
CI
 10
1.767588
 20
7.004064
 30
0.0
 11
1.807588
 21
7.004064
 31
0.0
  0
LINE
  8
CI
 10
1.767588
 20
7.129064
 30
0.0
 11
1.807588
 21
7.129064
 31
0.0
  0
LINE
  8
CI
 10
1.824461
 20
7.10931
 30
0.0
 11
1.824461
 21
7.02431
 31
0.0
  0
LINE
  8
CI
 10
1.767588
 20
7.191164
 30
0.0
 11
1.767588
 21
6.941964
 31
0.0
  0
LINE
  8
CI
 10
1.807588
 20
7.004556
 30
0.0
 11
1.807588
 21
7.00431
 31
0.0
  0
LINE
  8
CI
 10
1.517588
 20
7.238064
 30
0.0
 11
1.747588
 21
7.238064
 31
0.0
  0
LINE
  8
CI
 10
2.886447
 20
6.816642
 30
0.0
 11
2.886447
 21
7.316642
 31
0.0
  0
LINE
  8
CI
 10
2.460835
 20
6.031064
 30
0.0
 11
2.429585
 21
6.046364
 31
0.0
  0
LINE
  8
CI
 10
2.460835
 20
6.374064
 30
0.0
 11
2.429585
 21
6.358764
 31
0.0
  0
LINE
  8
CI
 10
2.398335
 20
6.031064
 30
0.0
 11
2.168335
 21
6.031064
 31
0.0
  0
LINE
  8
CI
 10
2.398335
 20
6.374064
 30
0.0
 11
2.168335
 21
6.374064
 31
0.0
  0
LINE
  8
CI
 10
2.335835
 20
6.280264
 30
0.0
 11
2.168335
 21
6.280264
 31
0.0
  0
LINE
  8
CI
 10
2.335835
 20
6.124864
 30
0.0
 11
2.168335
 21
6.124864
 31
0.0
  0
ARC
  8
CI
 10
2.213325
 20
6.077964
 30
0.0
 40
0.06499
 50
133.809396
 51
226.190604
  0
LINE
  8
CI
 10
2.105209
 20
6.264818
 30
0.0
 11
2.105209
 21
6.265064
 31
0.0
  0
LINE
  8
CI
 10
2.148335
 20
6.077964
 30
0.0
 11
2.148335
 21
6.327164
 31
0.0
  0
LINE
  8
CI
 10
2.088335
 20
6.160064
 30
0.0
 11
2.088335
 21
6.245064
 31
0.0
  0
LINE
  8
CI
 10
2.148335
 20
6.140064
 30
0.0
 11
2.108335
 21
6.140064
 31
0.0
  0
LINE
  8
CI
 10
2.148335
 20
6.265064
 30
0.0
 11
2.108335
 21
6.265064
 31
0.0
  0
ARC
  8
CI
 10
2.309267
 20
6.202564
 30
0.0
 40
0.160932
 50
151.130789
 51
208.869211
  0
ARC
  8
CI
 10
2.213325
 20
6.327164
 30
0.0
 40
0.06499
 50
133.809396
 51
226.190604
  0
ARC
  8
CI
 10
2.108335
 20
6.160064
 30
0.0
 40
0.02
 50
180.0
 51
270.0
  0
ARC
  8
CI
 10
2.108335
 20
6.245064
 30
0.0
 40
0.02
 50
90.0
 51
180.0
  0
LINE
  8
CI
 10
2.105209
 20
6.140064
 30
0.0
 11
2.105209
 21
6.14031
 31
0.0
  0
LINE
  8
CI
 10
2.398335
 20
6.031064
 30
0.0
 11
2.398335
 21
6.374064
 31
0.0
  0
LINE
  8
CI
 10
2.429585
 20
6.046364
 30
0.0
 11
2.429585
 21
6.358764
 31
0.0
  0
LINE
  8
CI
 10
2.335835
 20
6.031064
 30
0.0
 11
2.335835
 21
6.374064
 31
0.0
  0
LINE
  8
CI
 10
2.429585
 20
6.046364
 30
0.0
 11
2.398335
 21
6.031064
 31
0.0
  0
LINE
  8
CI
 10
2.429585
 20
6.358764
 30
0.0
 11
2.398335
 21
6.374064
 31
0.0
  0
LINE
  8
CI
 10
2.648335
 20
6.374064
 30
0.0
 11
2.69077
 21
6.447564
 31
0.0
  0
LINE
  8
CI
 10
2.689346
 20
6.034001
 30
0.0
 11
2.689346
 21
6.371126
 31
0.0
  0
LINE
  8
CI
 10
2.460835
 20
6.031064
 30
0.0
 11
2.460835
 21
6.374064
 31
0.0
  0
LINE
  8
CI
 10
2.648335
 20
6.031064
 30
0.0
 11
2.648335
 21
6.374064
 31
0.0
  0
LINE
  8
CI
 10
2.648335
 20
6.031064
 30
0.0
 11
2.460835
 21
6.031064
 31
0.0
  0
LINE
  8
CI
 10
2.648335
 20
6.374064
 30
0.0
 11
2.460835
 21
6.374064
 31
0.0
  0
LINE
  8
CI
 10
2.856073
 20
6.034001
 30
0.0
 11
2.856073
 21
6.371126
 31
0.0
  0
LINE
  8
CI
 10
2.736447
 20
6.848642
 30
0.0
 11
2.736447
 21
7.284642
 31
0.0
  0
LINE
  8
CI
 10
2.511447
 20
6.848642
 30
0.0
 11
2.511447
 21
7.284642
 31
0.0
  0
LINE
  8
CI
 10
2.736447
 20
7.284642
 30
0.0
 11
2.811447
 21
7.209142
 31
0.0
  0
LINE
  8
CI
 10
2.811447
 20
7.209142
 30
0.0
 11
2.886447
 21
7.284642
 31
0.0
  0
LINE
  8
CI
 10
2.511447
 20
6.848642
 30
0.0
 11
2.736447
 21
6.848642
 31
0.0
  0
LINE
  8
CI
 10
2.811447
 20
6.924142
 30
0.0
 11
2.886447
 21
6.848642
 31
0.0
  0
LINE
  8
CI
 10
2.736447
 20
6.848642
 30
0.0
 11
2.811447
 21
6.924142
 31
0.0
  0
LINE
  8
CI
 10
2.811447
 20
6.924142
 30
0.0
 11
2.811447
 21
7.209142
 31
0.0
  0
LINE
  8
CI
 10
2.511447
 20
7.284642
 30
0.0
 11
2.736447
 21
7.284642
 31
0.0
  0
LINE
  8
CI
 10
3.986447
 20
6.816642
 30
0.0
 11
3.986447
 21
7.316642
 31
0.0
  0
LINE
  8
CI
 10
3.786447
 20
6.816642
 30
0.0
 11
3.786447
 21
7.316642
 31
0.0
  0
LINE
  8
CI
 10
3.586447
 20
6.816642
 30
0.0
 11
3.586447
 21
7.316642
 31
0.0
  0
LINE
  8
CI
 10
3.386447
 20
6.816642
 30
0.0
 11
3.386447
 21
7.316642
 31
0.0
  0
LINE
  8
CI
 10
3.186447
 20
6.816642
 30
0.0
 11
3.186447
 21
7.316642
 31
0.0
  0
LINE
  8
CI
 10
2.986447
 20
6.816642
 30
0.0
 11
2.986447
 21
7.316642
 31
0.0
  0
LINE
  8
CI
 10
3.022801
 20
6.034001
 30
0.0
 11
3.022801
 21
6.371126
 31
0.0
  0
LINE
  8
CI
 10
3.189528
 20
6.034001
 30
0.0
 11
3.189528
 21
6.371126
 31
0.0
  0
LINE
  8
CI
 10
3.356255
 20
6.034001
 30
0.0
 11
3.356255
 21
6.371126
 31
0.0
  0
LINE
  8
CI
 10
3.522983
 20
6.034001
 30
0.0
 11
3.522983
 21
6.371126
 31
0.0
  0
LINE
  8
CI
 10
3.68971
 20
6.034001
 30
0.0
 11
3.68971
 21
6.371126
 31
0.0
  0
LINE
  8
CI
 10
3.856438
 20
6.034001
 30
0.0
 11
3.856438
 21
6.371126
 31
0.0
  0
LINE
  8
CI
 10
4.023165
 20
6.034001
 30
0.0
 11
4.023165
 21
6.371126
 31
0.0
  0
LINE
  8
CI
 10
3.486447
 20
7.236517
 30
0.0
 11
3.486447
 21
6.896767
 31
0.0
  0
LINE
  8
CI
 10
3.286447
 20
7.236517
 30
0.0
 11
3.286447
 21
6.896767
 31
0.0
  0
LINE
  8
CI
 10
3.086447
 20
7.236517
 30
0.0
 11
3.086447
 21
6.896767
 31
0.0
  0
LINE
  8
CI
 10
3.886447
 20
7.236517
 30
0.0
 11
3.886447
 21
6.896767
 31
0.0
  0
LINE
  8
CI
 10
3.686447
 20
7.236517
 30
0.0
 11
3.686447
 21
6.896767
 31
0.0
  0
ARC
  8
CI
 10
4.516246
 20
6.879064
 30
0.0
 40
0.459453
 50
335.91485
 51
24.08515
  0
LINE
  8
CI
 10
4.9757
 20
7.401564
 30
0.0
 11
4.9757
 21
6.731564
 31
0.0
  0
ARC
  8
CI
 10
5.115153
 20
6.879064
 30
0.0
 40
0.459453
 50
155.91485
 51
204.08515
  0
LINE
  8
CI
 10
4.6557
 20
7.401564
 30
0.0
 11
4.6557
 21
6.731564
 31
0.0
  0
LINE
  8
CI
 10
4.9757
 20
7.383439
 30
0.0
 11
4.9757
 21
6.749689
 31
0.0
  0
LINE
  8
CI
 10
4.586447
 20
6.816642
 30
0.0
 11
4.586447
 21
7.316642
 31
0.0
  0
LINE
  8
CI
 10
4.386447
 20
6.816642
 30
0.0
 11
4.386447
 21
7.316642
 31
0.0
  0
LINE
  8
CI
 10
4.186447
 20
6.816642
 30
0.0
 11
4.186447
 21
7.316642
 31
0.0
  0
LINE
  8
CI
 10
4.189892
 20
6.034001
 30
0.0
 11
4.189892
 21
6.371126
 31
0.0
  0
LINE
  8
CI
 10
4.35662
 20
6.034001
 30
0.0
 11
4.35662
 21
6.371126
 31
0.0
  0
LINE
  8
CI
 10
4.523347
 20
6.034001
 30
0.0
 11
4.523347
 21
6.371126
 31
0.0
  0
ARC
  8
CI
 10
5.115153
 20
6.390064
 30
0.0
 40
0.459453
 50
155.91485
 51
204.08515
  0
ARC
  8
CI
 10
4.516246
 20
6.390064
 30
0.0
 40
0.459453
 50
335.91485
 51
24.08515
  0
LINE
  8
CI
 10
4.9357
 20
6.202564
 30
0.0
 11
4.6957
 21
6.202564
 31
0.0
  0
LINE
  8
CI
 10
4.9357
 20
6.577564
 30
0.0
 11
4.6957
 21
6.577564
 31
0.0
  0
LINE
  8
CI
 10
4.9357
 20
6.691564
 30
0.0
 11
4.6957
 21
6.691564
 31
0.0
  0
LINE
  8
CI
 10
4.6957
 20
6.577564
 30
0.0
 11
4.6557
 21
6.537564
 31
0.0
  0
LINE
  8
CI
 10
4.6957
 20
6.691564
 30
0.0
 11
4.6557
 21
6.731564
 31
0.0
  0
LINE
  8
CI
 10
4.9357
 20
6.577564
 30
0.0
 11
4.9757
 21
6.537564
 31
0.0
  0
LINE
  8
CI
 10
4.9357
 20
6.691564
 30
0.0
 11
4.9757
 21
6.731564
 31
0.0
  0
LINE
  8
CI
 10
4.486447
 20
7.236517
 30
0.0
 11
4.486447
 21
6.896767
 31
0.0
  0
LINE
  8
CI
 10
4.286447
 20
7.236517
 30
0.0
 11
4.286447
 21
6.896767
 31
0.0
  0
LINE
  8
CI
 10
4.086447
 20
7.236517
 30
0.0
 11
4.086447
 21
6.896767
 31
0.0
  0
ARC
  8
CI
 10
5.115153
 20
7.254064
 30
0.0
 40
0.459453
 50
155.91485
 51
204.08515
  0
ARC
  8
CI
 10
4.516246
 20
7.254064
 30
0.0
 40
0.459453
 50
335.91485
 51
24.08515
  0
LINE
  8
CI
 10
4.9357
 20
7.066564
 30
0.0
 11
4.6957
 21
7.066564
 31
0.0
  0
LINE
  8
CI
 10
4.9357
 20
7.441564
 30
0.0
 11
4.6957
 21
7.441564
 31
0.0
  0
LINE
  8
CI
 10
4.6957
 20
7.441564
 30
0.0
 11
4.6557
 21
7.401564
 31
0.0
  0
LINE
  8
CI
 10
4.9357
 20
7.441564
 30
0.0
 11
4.9757
 21
7.401564
 31
0.0
  0
LINE
  8
SHAFT
 10
5.8507
 20
2.5
 30
0.0
 11
5.8507
 21
3.5
 31
0.0
  0
LINE
  8
OBJ
 10
6.2557
 20
-2.435
 30
0.0
 11
6.2557
 21
3.19
 31
0.0
  0
LINE
  8
OBJ
 10
7.0057
 20
3.19
 30
0.0
 11
7.0057
 21
-2.435
 31
0.0
  0
ARC
  8
CI
 10
5.678249
 20
-0.740288
 30
0.0
 40
0.039189
 50
0.0
 51
90.0
  0
LINE
  8
CI
 10
5.621169
 20
-0.701099
 30
0.0
 11
5.621169
 21
-0.946056
 31
0.0
  0
LINE
  8
OBJ
 10
5.1957
 20
0.98
 30
0.0
 11
5.1957
 21
-0.98
 31
0.0
  0
LINE
  8
SHAFT
 10
5.4457
 20
0.98
 30
0.0
 11
5.4457
 21
-0.98
 31
0.0
  0
LINE
  8
OBJ
 10
6.1007
 20
-0.98
 30
0.0
 11
6.1007
 21
-2.5
 31
0.0
  0
LINE
  8
OBJ
 10
7.0057
 20
-2.435
 30
0.0
 11
6.2557
 21
-2.435
 31
0.0
  0
LINE
  8
SHAFT
 10
6.2557
 20
-1.375
 30
0.0
 11
6.1007
 21
-1.375
 31
0.0
  0
LINE
  8
SHAFT
 10
6.2557
 20
-2.125
 30
0.0
 11
6.1007
 21
-2.125
 31
0.0
  0
LINE
  8
CI
 10
5.4457
 20
-0.946056
 30
0.0
 11
5.678249
 21
-0.946056
 31
0.0
  0
LINE
  8
OBJ
 10
5.1957
 20
-0.98
 30
0.0
 11
6.1007
 21
-0.98
 31
0.0
  0
LINE
  8
CI
 10
5.717438
 20
-0.906867
 30
0.0
 11
5.717438
 21
-0.740288
 31
0.0
  0
ARC
  8
CI
 10
5.678249
 20
-0.906867
 30
0.0
 40
0.039189
 50
270.0
 51
0.0
  0
LINE
  8
CI
 10
7.0057
 20
-1.78125
 30
0.0
 11
6.2557
 21
-1.78125
 31
0.0
  0
LINE
  8
CI
 10
7.0057
 20
-1.71875
 30
0.0
 11
6.2557
 21
-1.71875
 31
0.0
  0
ARC
  8
CI
 10
5.678249
 20
0.909623
 30
0.0
 40
0.039189
 50
0.0
 51
90.0
  0
LINE
  8
CI
 10
5.857165
 20
0.466481
 30
0.0
 11
5.857165
 21
-0.466481
 31
0.0
  0
ARC
  8
CI
 10
4.663825
 20
0.0
 30
0.0
 40
1.197163
 50
4.579924
 51
14.906558
  0
ARC
  8
CI
 10
6.63904
 20
0.0
 30
0.0
 40
1.197163
 50
165.093442
 51
175.420076
  0
LINE
  8
CI
 10
5.4457
 20
0.466481
 30
0.0
 11
5.4457
 21
-0.466481
 31
0.0
  0
LINE
  8
CI
 10
5.8207
 20
-0.625
 30
0.0
 11
5.482165
 21
-0.625
 31
0.0
  0
LINE
  8
CI
 10
5.678249
 20
-0.701099
 30
0.0
 11
5.4457
 21
-0.701099
 31
0.0
  0
LINE
  8
CI
 10
5.8207
 20
-0.307962
 30
0.0
 11
5.482165
 21
-0.307962
 31
0.0
  0
ARC
  8
CI
 10
6.63904
 20
0.0
 30
0.0
 40
1.197163
 50
184.579924
 51
194.906558
  0
ARC
  8
CI
 10
5.808477
 20
-0.466481
 30
0.0
 40
0.362777
 50
154.089964
 51
205.910036
  0
ARC
  8
CI
 10
4.663825
 20
0.0
 30
0.0
 40
1.197163
 50
345.093442
 51
355.420076
  0
ARC
  8
CI
 10
5.494388
 20
-0.466481
 30
0.0
 40
0.362777
 50
334.089964
 51
25.910036
  0
LINE
  8
CI
 10
5.8207
 20
0.625
 30
0.0
 11
5.482165
 21
0.625
 31
0.0
  0
LINE
  8
CI
 10
5.8207
 20
0.307962
 30
0.0
 11
5.482165
 21
0.307962
 31
0.0
  0
LINE
  8
CI
 10
5.678249
 20
0.948812
 30
0.0
 11
5.4457
 21
0.948812
 31
0.0
  0
LINE
  8
CI
 10
5.4457
 20
0.703855
 30
0.0
 11
5.678249
 21
0.703855
 31
0.0
  0
ARC
  8
CI
 10
5.808477
 20
0.466481
 30
0.0
 40
0.362777
 50
154.089964
 51
205.910036
  0
LINE
  8
CI
 10
5.621169
 20
0.948812
 30
0.0
 11
5.621169
 21
0.703855
 31
0.0
  0
ARC
  8
CI
 10
5.494388
 20
0.466481
 30
0.0
 40
0.362777
 50
334.089964
 51
25.910036
  0
ARC
  8
CI
 10
5.678249
 20
0.743044
 30
0.0
 40
0.039189
 50
270.0
 51
0.0
  0
LINE
  8
CI
 10
5.717438
 20
0.743044
 30
0.0
 11
5.717438
 21
0.909623
 31
0.0
  0
LINE
  8
SHAFT
 10
6.2557
 20
2.125
 30
0.0
 11
6.1007
 21
2.125
 31
0.0
  0
LINE
  8
SHAFT
 10
6.2557
 20
1.375
 30
0.0
 11
6.1007
 21
1.375
 31
0.0
  0
LINE
  8
OBJ
 10
6.1007
 20
2.5
 30
0.0
 11
6.1007
 21
0.98
 31
0.0
  0
LINE
  8
OBJ
 10
5.1957
 20
0.98
 30
0.0
 11
6.1007
 21
0.98
 31
0.0
  0
POLYLINE
  8
CI
 66
     1
 10
0.0
 20
0.0
 30
0.0
  0
VERTEX
  8
CI
 10
6.017427
 20
6.447564
 30
0.0
  0
VERTEX
  8
CI
 10
6.017427
 20
5.957564
 30
0.0
  0
SEQEND
  8
CI
  0
POLYLINE
  8
CI
 66
     1
 10
0.0
 20
0.0
 30
0.0
  0
VERTEX
  8
CI
 10
6.152202
 20
5.957564
 30
0.0
  0
VERTEX
  8
CI
 10
6.152202
 20
6.447564
 30
0.0
  0
SEQEND
  8
CI
  0
POLYLINE
  8
CI
 66
     1
 10
0.0
 20
0.0
 30
0.0
  0
VERTEX
  8
CI
 10
5.882652
 20
6.447564
 30
0.0
  0
VERTEX
  8
CI
 10
5.882652
 20
5.957564
 30
0.0
  0
SEQEND
  8
CI
  0
CIRCLE
  8
CI
 10
5.6007
 20
5.814564
 30
0.0
 40
0.1775
  0
LINE
  8
CI
 10
6.213811
 20
6.032564
 30
0.0
 11
6.152202
 21
5.957564
 31
0.0
  0
ARC
  8
SHAFT
 10
5.6007
 20
5.814564
 30
0.0
 40
0.1875
 50
0.0
 51
180.0
  0
LINE
  8
SHAFT
 10
5.8507
 20
5.634564
 30
0.0
 11
5.8507
 21
7.634564
 31
0.0
  0
LINE
  8
OBJ
 10
6.2557
 20
5.694564
 30
0.0
 11
6.2557
 21
7.574564
 31
0.0
  0
LINE
  8
OBJ
 10
7.0057
 20
5.694564
 30
0.0
 11
7.0057
 21
7.574564
 31
0.0
  0
ARC
  8
CI
 10
6.142549
 20
2.882
 30
0.0
 40
0.022
 50
270.0
 51
0.0
  0
ARC
  8
CI
 10
6.142549
 20
3.178
 30
0.0
 40
0.022
 50
0.0
 51
90.0
  0
LINE
  8
CI
 10
5.45445
 20
3.49
 30
0.0
 11
5.4232
 21
3.45875
 31
0.0
  0
LINE
  8
CI
 10
5.74695
 20
3.49
 30
0.0
 11
5.7782
 21
3.45875
 31
0.0
  0
LINE
  8
SHAFT
 10
5.7882
 20
3.25
 30
0.0
 11
5.7882
 21
3.5
 31
0.0
  0
LINE
  8
SHAFT
 10
5.4132
 20
3.25
 30
0.0
 11
5.4132
 21
3.5
 31
0.0
  0
LINE
  8
SHAFT
 10
5.7882
 20
3.25
 30
0.0
 11
5.4132
 21
3.25
 31
0.0
  0
LINE
  8
CI
 10
5.4232
 20
3.25
 30
0.0
 11
5.4232
 21
3.45875
 31
0.0
  0
LINE
  8
CI
 10
5.928846
 20
2.856
 30
0.0
 11
5.928846
 21
3.193125
 31
0.0
  0
LINE
  8
CI
 10
6.112122
 20
2.86
 30
0.0
 11
6.112122
 21
3.2
 31
0.0
  0
POLYLINE
  8
CI
 66
     1
 10
0.0
 20
0.0
 30
0.0
  0
VERTEX
  8
CI
 10
5.970512
 20
2.785
 30
0.0
  0
VERTEX
  8
CI
 10
5.970512
 20
3.275
 30
0.0
  0
SEQEND
  8
CI
  0
LINE
  8
CI
 10
6.032122
 20
2.86
 30
0.0
 11
6.032122
 21
3.2
 31
0.0
  0
LINE
  8
CI
 10
5.848064
 20
2.785
 30
0.0
 11
5.970512
 21
2.785
 31
0.0
  0
LINE
  8
CI
 10
6.032122
 20
2.86
 30
0.0
 11
5.970512
 21
2.785
 31
0.0
  0
LINE
  8
CI
 10
6.032122
 20
2.86
 30
0.0
 11
6.142549
 21
2.86
 31
0.0
  0
LINE
  8
CI
 10
5.848064
 20
3.275
 30
0.0
 11
5.970512
 21
3.275
 31
0.0
  0
LINE
  8
CI
 10
5.7782
 20
3.25
 30
0.0
 11
5.7782
 21
3.45875
 31
0.0
  0
LINE
  8
CI
 10
6.032122
 20
3.2
 30
0.0
 11
5.970512
 21
3.275
 31
0.0
  0
LINE
  8
CI
 10
6.032122
 20
3.2
 30
0.0
 11
6.142549
 21
3.2
 31
0.0
  0
LINE
  8
CI
 10
5.74695
 20
3.49
 30
0.0
 11
5.45445
 21
3.49
 31
0.0
  0
CIRCLE
  8
CI
 10
6.6307
 20
2.875
 30
0.0
 40
0.1775
  0
POLYLINE
  8
CI
 66
     1
 10
0.0
 20
0.0
 30
0.0
 70
     1
  0
VERTEX
  8
CI
 10
6.73695
 20
2.936343
 30
0.0
  0
VERTEX
  8
CI
 10
6.6307
 20
2.997687
 30
0.0
  0
VERTEX
  8
CI
 10
6.52445
 20
2.936343
 30
0.0
  0
VERTEX
  8
CI
 10
6.52445
 20
2.813657
 30
0.0
  0
VERTEX
  8
CI
 10
6.6307
 20
2.752313
 30
0.0
  0
VERTEX
  8
CI
 10
6.73695
 20
2.813657
 30
0.0
  0
SEQEND
  8
CI
  0
CIRCLE
  8
OBJ
 10
6.6307
 20
2.875
 30
0.0
 40
0.195
  0
LINE
  8
OBJ
 10
6.2557
 20
3.19
 30
0.0
 11
7.0057
 21
3.19
 31
0.0
  0
LINE
  8
CI
 10
6.164549
 20
2.882
 30
0.0
 11
6.164549
 21
3.178
 31
0.0
  0
POLYLINE
  8
CI
 66
     1
 10
0.0
 20
0.0
 30
0.0
 70
     1
  0
VERTEX
  8
CI
 10
5.49445
 20
5.875907
 30
0.0
  0
VERTEX
  8
CI
 10
5.6007
 20
5.937251
 30
0.0
  0
VERTEX
  8
CI
 10
5.70695
 20
5.875907
 30
0.0
  0
VERTEX
  8
CI
 10
5.70695
 20
5.753221
 30
0.0
  0
VERTEX
  8
CI
 10
5.6007
 20
5.691877
 30
0.0
  0
VERTEX
  8
CI
 10
5.49445
 20
5.753221
 30
0.0
  0
SEQEND
  8
CI
  0
LINE
  8
CI
 10
5.2402
 20
5.374564
 30
0.0
 11
5.2402
 21
5.634564
 31
0.0
  0
LINE
  8
SHAFT
 10
5.4132
 20
5.634564
 30
0.0
 11
5.4132
 21
5.814564
 31
0.0
  0
LINE
  8
CI
 10
5.8507
 20
5.957564
 30
0.0
 11
6.152202
 21
5.957564
 31
0.0
  0
LINE
  8
SHAFT
 10
5.7882
 20
5.634564
 30
0.0
 11
5.7882
 21
5.814564
 31
0.0
  0
LINE
  8
OBJ
 10
6.1007
 20
5.957564
 30
0.0
 11
6.1007
 21
5.634564
 31
0.0
  0
LINE
  8
OBJ
 10
7.0057
 20
5.694564
 30
0.0
 11
6.2557
 21
5.694564
 31
0.0
  0
LINE
  8
CI
 10
6.213811
 20
6.372564
 30
0.0
 11
6.152202
 21
6.447564
 31
0.0
  0
LINE
  8
CI
 10
6.0507
 20
7.146642
 30
0.0
 11
6.2557
 21
7.146642
 31
0.0
  0
LINE
  8
CI
 10
6.0507
 20
6.986642
 30
0.0
 11
6.2557
 21
6.986642
 31
0.0
  0
LINE
  8
CI
 10
6.0507
 20
6.816642
 30
0.0
 11
6.0507
 21
7.316642
 31
0.0
  0
LINE
  8
OBJ
 10
6.1007
 20
6.986642
 30
0.0
 11
6.1007
 21
6.447564
 31
0.0
  0
LINE
  8
CI
 10
6.100791
 20
6.371126
 30
0.0
 11
6.100791
 21
6.034001
 31
0.0
  0
LINE
  8
CI
 10
5.966016
 20
6.371126
 30
0.0
 11
5.966016
 21
6.034001
 31
0.0
  0
LINE
  8
CI
 10
5.8507
 20
6.447564
 30
0.0
 11
6.152202
 21
6.447564
 31
0.0
  0
LINE
  8
CI
 10
5.8507
 20
6.816642
 30
0.0
 11
6.0507
 21
6.816642
 31
0.0
  0
CIRCLE
  8
CI
 10
5.6007
 20
7.454564
 30
0.0
 40
0.1775
  0
POLYLINE
  8
CI
 66
     1
 10
0.0
 20
0.0
 30
0.0
 70
     1
  0
VERTEX
  8
CI
 10
5.49445
 20
7.393221
 30
0.0
  0
VERTEX
  8
CI
 10
5.6007
 20
7.331877
 30
0.0
  0
VERTEX
  8
CI
 10
5.70695
 20
7.393221
 30
0.0
  0
VERTEX
  8
CI
 10
5.70695
 20
7.515907
 30
0.0
  0
VERTEX
  8
CI
 10
5.6007
 20
7.577251
 30
0.0
  0
VERTEX
  8
CI
 10
5.49445
 20
7.515907
 30
0.0
  0
SEQEND
  8
CI
  0
ARC
  8
SHAFT
 10
5.6007
 20
7.454564
 30
0.0
 40
0.1875
 50
180.0
 51
0.0
  0
LINE
  8
SHAFT
 10
5.4132
 20
7.634564
 30
0.0
 11
5.4132
 21
7.454564
 31
0.0
  0
LINE
  8
CI
 10
5.9507
 20
7.236517
 30
0.0
 11
5.9507
 21
6.896767
 31
0.0
  0
LINE
  8
OBJ
 10
6.1007
 20
7.634564
 30
0.0
 11
6.1007
 21
7.146642
 31
0.0
  0
LINE
  8
CI
 10
5.8507
 20
7.316642
 30
0.0
 11
6.0507
 21
7.316642
 31
0.0
  0
LINE
  8
SHAFT
 10
5.7882
 20
7.634564
 30
0.0
 11
5.7882
 21
7.454564
 31
0.0
  0
LINE
  8
CI
 10
7.0057
 20
6.665814
 30
0.0
 11
6.2557
 21
6.665814
 31
0.0
  0
LINE
  8
CI
 10
7.0057
 20
6.603314
 30
0.0
 11
6.2557
 21
6.603314
 31
0.0
  0
LINE
  8
CI
 10
6.213811
 20
6.032564
 30
0.0
 11
6.213811
 21
6.372564
 31
0.0
  0
LINE
  8
CI
 10
6.213811
 20
6.032564
 30
0.0
 11
6.2557
 21
6.032564
 31
0.0
  0
LINE
  8
CI
 10
6.213811
 20
6.372564
 30
0.0
 11
6.2557
 21
6.372564
 31
0.0
  0
LINE
  8
OBJ
 10
7.0057
 20
7.574564
 30
0.0
 11
6.2557
 21
7.574564
 31
0.0
  0
ENDSEC
  0
EOF
