  0
SECTION
  2
HEADER
  9
$ACADVER
  1
AC1009
  9
$INSBASE
 10
0.0
 20
0.0
 30
0.0
  9
$EXTMIN
 10
-5.869749
 20
-4.941783
 30
0.0
  9
$EXTMAX
 10
24.160642
 20
28.288601
 30
0.0
  9
$LIMMIN
 10
0.0
 20
0.0
  9
$LIMMAX
 10
12.0
 20
9.0
  9
$ORTHOMODE
 70
     1
  9
$REGENMODE
 70
     1
  9
$FILLMODE
 70
     1
  9
$QTEXTMODE
 70
     0
  9
$MIRRTEXT
 70
     1
  9
$DRAGMODE
 70
     2
  9
$LTSCALE
 40
0.5
  9
$OSMODE
 70
    32
  9
$ATTMODE
 70
     1
  9
$TEXTSIZE
 40
0.1875
  9
$TRACEWID
 40
0.05
  9
$TEXTSTYLE
  7
STANDARD
  9
$CLAYER
  8
0
  9
$CELTYPE
  6
BYLAYER
  9
$CECOLOR
 62
   256
  9
$DIMSCALE
 40
1.0
  9
$DIMASZ
 40
0.18
  9
$DIMEXO
 40
0.0625
  9
$DIMDLI
 40
0.375
  9
$DIMRND
 40
0.0
  9
$DIMDLE
 40
0.0
  9
$DIMEXE
 40
0.07
  9
$DIMTP
 40
0.0
  9
$DIMTM
 40
0.0
  9
$DIMTXT
 40
0.18
  9
$DIMCEN
 40
-0.09
  9
$DIMTSZ
 40
0.0
  9
$DIMTOL
 70
     0
  9
$DIMLIM
 70
     0
  9
$DIMTIH
 70
     0
  9
$DIMTOH
 70
     0
  9
$DIMSE1
 70
     0
  9
$DIMSE2
 70
     0
  9
$DIMTAD
 70
     0
  9
$DIMZIN
 70
     0
  9
$DIMBLK
  1

  9
$DIMASO
 70
     1
  9
$DIMSHO
 70
     1
  9
$DIMPOST
  1

  9
$DIMAPOST
  1

  9
$DIMALT
 70
     0
  9
$DIMALTD
 70
     2
  9
$DIMALTF
 40
25.4
  9
$DIMLFAC
 40
1.0
  9
$DIMTOFL
 70
     0
  9
$DIMTVP
 40
0.0
  9
$DIMTIX
 70
     0
  9
$DIMSOXD
 70
     0
  9
$DIMSAH
 70
     0
  9
$DIMBLK1
  1

  9
$DIMBLK2
  1

  9
$DIMSTYLE
  2
*UNNAMED
  9
$DIMCLRD
 70
     0
  9
$DIMCLRE
 70
     0
  9
$DIMCLRT
 70
     0
  9
$DIMTFAC
 40
1.0
  9
$DIMGAP
 40
0.09
  9
$LUNITS
 70
     2
  9
$LUPREC
 70
     3
  9
$SKETCHINC
 40
0.1
  9
$FILLETRAD
 40
0.0
  9
$AUNITS
 70
     0
  9
$AUPREC
 70
     0
  9
$MENU
  1
ACAD
  9
$ELEVATION
 40
0.0
  9
$PELEVATION
 40
0.0
  9
$THICKNESS
 40
0.0
  9
$LIMCHECK
 70
     0
  9
$BLIPMODE
 70
     0
  9
$CHAMFERA
 40
0.0
  9
$CHAMFERB
 40
0.0
  9
$SKPOLY
 70
     0
  9
$TDCREATE
 40
2450421.446519444
  9
$TDUPDATE
 40
2450421.446519444
  9
$TDINDWG
 40
0.0000000000
  9
$TDUSRTIMER
 40
0.0000000000
  9
$USRTIMER
 70
     1
  9
$ANGBASE
 50
0.0
  9
$ANGDIR
 70
     0
  9
$PDMODE
 70
     0
  9
$PDSIZE
 40
0.0
  9
$PLINEWID
 40
0.0
  9
$COORDS
 70
     2
  9
$SPLFRAME
 70
     0
  9
$SPLINETYPE
 70
     6
  9
$SPLINESEGS
 70
     8
  9
$ATTDIA
 70
     0
  9
$ATTREQ
 70
     1
  9
$HANDLING
 70
     0
  9
$HANDSEED
  5
0
  9
$SURFTAB1
 70
     6
  9
$SURFTAB2
 70
     6
  9
$SURFTYPE
 70
     6
  9
$SURFU
 70
     6
  9
$SURFV
 70
     6
  9
$UCSNAME
  2

  9
$UCSORG
 10
0.0
 20
0.0
 30
0.0
  9
$UCSXDIR
 10
1.0
 20
0.0
 30
0.0
  9
$UCSYDIR
 10
0.0
 20
1.0
 30
0.0
  9
$PUCSNAME
  2

  9
$PUCSORG
 10
0.0
 20
0.0
 30
0.0
  9
$PUCSXDIR
 10
1.0
 20
0.0
 30
0.0
  9
$PUCSYDIR
 10
0.0
 20
1.0
 30
0.0
  9
$USERI1
 70
     0
  9
$USERI2
 70
     0
  9
$USERI3
 70
     0
  9
$USERI4
 70
     0
  9
$USERI5
 70
     0
  9
$USERR1
 40
0.0
  9
$USERR2
 40
0.0
  9
$USERR3
 40
0.0
  9
$USERR4
 40
0.0
  9
$USERR5
 40
0.0
  9
$WORLDVIEW
 70
     1
  9
$SHADEDGE
 70
     3
  9
$SHADEDIF
 70
    70
  9
$TILEMODE
 70
     1
  9
$MAXACTVP
 70
    16
  9
$PINSBASE
 10
-3.360146
 20
50.0
 30
1.265184
  9
$PLIMCHECK
 70
     0
  9
$PEXTMIN
 10
1.000000E+20
 20
1.000000E+20
 30
1.000000E+20
  9
$PEXTMAX
 10
-1.000000E+20
 20
-1.000000E+20
 30
-1.000000E+20
  9
$PLIMMIN
 10
0.0
 20
0.0
  9
$PLIMMAX
 10
12.0
 20
9.0
  9
$UNITMODE
 70
     0
  9
$VISRETAIN
 70
     0
  9
$PLINEGEN
 70
     0
  9
$PSLTSCALE
 70
     0
  9
$TREEDEPTH
 70
  3020
  9
$DWGCODEPAGE
  3
undefined
  0
ENDSEC
  0
SECTION
  2
TABLES
  0
TABLE
  2
VPORT
 70
     1
  0
VPORT
  2
*ACTIVE
 70
     0
 10
0.0
 20
0.0
 11
1.0
 21
1.0
 12
-0.584673
 22
-1.088984
 13
0.0
 23
0.0
 14
0.125
 24
0.125
 15
0.0
 25
0.0
 16
0.0
 26
0.0
 36
1.0
 17
0.0
 27
0.0
 37
0.0
 40
8.746613
 41
1.382567
 42
50.0
 43
0.0
 44
0.0
 50
0.0
 51
0.0
 71
     0
 72
   100
 73
     1
 74
     0
 75
     0
 76
     0
 77
     0
 78
     0
  0
ENDTAB
  0
TABLE
  2
LTYPE
 70
     4
  0
LTYPE
  2
CONTINUOUS
 70
    64
  3
Solid line
 72
    65
 73
     0
 40
0.0
  0
LTYPE
  2
HIDDEN
 70
    64
  3
__ __ __ __ __ __ __ __ __ __ __ __ __ __ __ __
 72
    65
 73
     2
 40
0.375
 49
0.25
 49
-0.125
  0
LTYPE
  2
CENTER
 70
    64
  3
____ _ ____ _ ____ _ ____ _ ____ _ ____ _ ____
 72
    65
 73
     4
 40
2.0
 49
1.25
 49
-0.25
 49
0.25
 49
-0.25
  0
LTYPE
  2
CENTER2
 70
    64
  3
___ _ ___ _ ___ _ ___ _ ___ _ ___ _ ___ _ ___ _
 72
    65
 73
     4
 40
1.125
 49
0.75
 49
-0.125
 49
0.125
 49
-0.125
  0
ENDTAB
  0
TABLE
  2
LAYER
 70
     7
  0
LAYER
  2
0
 70
     0
 62
     7
  6
CONTINUOUS
  0
LAYER
  2
HID
 70
    64
 62
    14
  6
HIDDEN
  0
LAYER
  2
OBJ
 70
    64
 62
     5
  6
CONTINUOUS
  0
LAYER
  2
CENTER
 70
    64
 62
     2
  6
CENTER
  0
LAYER
  2
DIM
 70
    64
 62
    12
  6
CONTINUOUS
  0
LAYER
  2
CI
 70
    64
 62
     8
  6
CONTINUOUS
  0
LAYER
  2
3
 70
    64
 62
     1
  6
CONTINUOUS
  0
ENDTAB
  0
TABLE
  2
STYLE
 70
     1
  0
STYLE
  2
STANDARD
 70
    64
 40
0.0
 41
1.0
 50
0.0
 71
     0
 42
0.2
  3
txt
  4

  0
ENDTAB
  0
TABLE
  2
VIEW
 70
     0
  0
ENDTAB
  0
TABLE
  2
UCS
 70
     0
  0
ENDTAB
  0
TABLE
  2
APPID
 70
     1
  0
APPID
  2
ACAD
 70
    64
  0
ENDTAB
  0
TABLE
  2
DIMSTYLE
 70
     0
  0
ENDTAB
  0
ENDSEC
  0
SECTION
  2
BLOCKS
  0
ENDSEC
  0
SECTION
  2
ENTITIES
  0
TEXT
  8
DIM
 10
-3.004219
 20
-4.941783
 30
0.0
 40
0.25
  1
RD-2 ROTARY DRIVE
  0
LINE
  8
3
 10
-0.968562
 20
2.084218
 30
0.0
 11
-0.968562
 21
0.866218
 31
0.0
  0
LINE
  8
CENTER
  6
CENTER2
 10
-1.218562
 20
0.699846
 30
0.0
 11
-1.218562
 21
1.403782
 31
0.0
  0
LINE
  8
HID
 10
-1.936258
 20
1.153593
 30
0.0
 11
-1.715358
 21
1.374493
 31
0.0
  0
LINE
  8
HID
 10
-1.969174
 20
1.164871
 30
0.0
 11
-1.726636
 21
1.407409
 31
0.0
  0
LINE
  8
HID
 10
-1.880786
 20
1.076483
 30
0.0
 11
-1.638248
 21
1.31902
 31
0.0
  0
LINE
  8
HID
 10
-1.92498
 20
1.120677
 30
0.0
 11
-1.682442
 21
1.363214
 31
0.0
  0
LINE
  8
HID
 10
-1.682442
 20
1.363214
 30
0.0
 11
-1.519808
 21
1.20058
 31
0.0
  0
LINE
  8
HID
 10
-2.101756
 20
1.297454
 30
0.0
 11
-1.969174
 21
1.164871
 31
0.0
  0
LINE
  8
CENTER
 10
-2.402672
 20
1.840766
 30
0.0
 11
-1.542202
 21
0.980296
 31
0.0
  0
LINE
  8
OBJ
 10
-1.468562
 20
2.855218
 30
0.0
 11
-1.468562
 21
0.855218
 31
0.0
  0
POLYLINE
  8
CI
 66
     1
 10
0.0
 20
0.0
 30
0.0
 70
     1
  0
VERTEX
  8
CI
 10
-3.272328
 20
1.254021
 30
0.0
  0
VERTEX
  8
CI
 10
-3.274865
 20
1.33481
 30
0.0
  0
VERTEX
  8
CI
 10
-3.346099
 20
1.373007
 30
0.0
  0
VERTEX
  8
CI
 10
-3.414796
 20
1.330415
 30
0.0
  0
VERTEX
  8
CI
 10
-3.412259
 20
1.249626
 30
0.0
  0
VERTEX
  8
CI
 10
-3.341024
 20
1.211429
 30
0.0
  0
SEQEND
  8
CI
  0
CIRCLE
  8
CI
 10
-3.343562
 20
1.292218
 30
0.0
 40
0.18375
  0
CIRCLE
  8
3
 10
-3.343562
 20
1.292218
 30
0.0
 40
0.209515
  0
LINE
  8
HID
 10
-4.585367
 20
1.297454
 30
0.0
 11
-4.71795
 21
1.164871
 31
0.0
  0
LINE
  8
HID
 10
-5.004681
 20
1.363214
 30
0.0
 11
-5.167316
 21
1.20058
 31
0.0
  0
LINE
  8
CENTER
  6
CENTER2
 10
-5.468562
 20
0.699846
 30
0.0
 11
-5.468562
 21
1.403782
 31
0.0
  0
LINE
  8
3
 10
-5.718562
 20
2.084218
 30
0.0
 11
-5.718562
 21
0.866218
 31
0.0
  0
LINE
  8
OBJ
 10
-5.218562
 20
0.855218
 30
0.0
 11
-5.218562
 21
2.855218
 31
0.0
  0
LINE
  8
HID
 10
-4.71795
 20
1.164871
 30
0.0
 11
-4.960487
 21
1.407409
 31
0.0
  0
LINE
  8
HID
 10
-4.750865
 20
1.153593
 30
0.0
 11
-4.971766
 21
1.374493
 31
0.0
  0
LINE
  8
HID
 10
-4.762144
 20
1.120677
 30
0.0
 11
-5.004681
 21
1.363214
 31
0.0
  0
LINE
  8
HID
 10
-4.806338
 20
1.076483
 30
0.0
 11
-5.048876
 21
1.31902
 31
0.0
  0
LINE
  8
CENTER
 10
-4.284451
 20
1.840766
 30
0.0
 11
-5.144921
 21
0.980296
 31
0.0
  0
POLYLINE
  8
3
 66
     1
 10
0.0
 20
0.0
 30
0.0
 70
     1
  0
VERTEX
  8
3
 10
-2.593562
 20
1.042218
 30
0.0
  0
VERTEX
  8
3
 10
-4.093562
 20
1.042218
 30
0.0
  0
VERTEX
  8
3
 10
-4.093562
 20
1.542218
 30
0.0
  0
VERTEX
  8
3
 10
-4.593562
 20
2.042218
 30
0.0
  0
VERTEX
  8
3
 10
-4.593562
 20
2.792218
 30
0.0
  0
VERTEX
  8
3
 10
-2.093562
 20
2.792218
 30
0.0
  0
VERTEX
  8
3
 10
-2.093562
 20
2.042218
 30
0.0
  0
VERTEX
  8
3
 10
-2.593562
 20
1.542218
 30
0.0
  0
SEQEND
  8
3
  0
ARC
  8
HID
 10
-4.926129
 20
1.023019
 30
0.0
 40
0.06499
 50
178.809396
 51
271.190604
  0
LINE
  8
HID
 10
-4.872665
 20
1.142809
 30
0.0
 11
-4.991105
 21
1.024369
 31
0.0
  0
LINE
  8
OBJ
 10
-5.218562
 20
0.855218
 30
0.0
 11
-3.999812
 21
0.855218
 31
0.0
  0
LINE
  8
HID
 10
-4.999812
 20
-2.655966
 30
0.0
 11
-4.687312
 21
-2.655966
 31
0.0
  0
LINE
  8
HID
 10
-4.999812
 20
-3.405966
 30
0.0
 11
-4.687312
 21
-3.405966
 31
0.0
  0
LINE
  8
OBJ
 10
-5.218562
 20
-3.655966
 30
0.0
 11
-1.468562
 21
-3.655966
 31
0.0
  0
LINE
  8
OBJ
 10
-5.218562
 20
-2.405966
 30
0.0
 11
-1.468562
 21
-2.405966
 31
0.0
  0
LINE
  8
HID
 10
-4.999812
 20
-2.405966
 30
0.0
 11
-4.999812
 21
-2.655966
 31
0.0
  0
LINE
  8
3
 10
-5.718562
 20
-2.421966
 30
0.0
 11
-5.718562
 21
-3.639966
 31
0.0
  0
LINE
  8
OBJ
 10
-5.218562
 20
-2.405966
 30
0.0
 11
-5.218562
 21
-3.655966
 31
0.0
  0
CIRCLE
  8
CI
 10
-5.468562
 20
-3.030966
 30
0.0
 40
0.0795
  0
CIRCLE
  8
HID
 10
-5.468562
 20
-3.030966
 30
0.0
 40
0.1
  0
LINE
  8
CENTER
 10
-5.558562
 20
-3.030966
 30
0.0
 11
-5.378562
 21
-3.030966
 31
0.0
  0
LINE
  8
HID
 10
-5.218562
 20
-2.796591
 30
0.0
 11
-5.718562
 21
-2.796591
 31
0.0
  0
LINE
  8
HID
 10
-5.218562
 20
-2.836591
 30
0.0
 11
-5.718562
 21
-2.836591
 31
0.0
  0
LINE
  8
HID
 10
-5.218562
 20
-3.225341
 30
0.0
 11
-5.718562
 21
-3.225341
 31
0.0
  0
LINE
  8
HID
 10
-5.218562
 20
-3.265341
 30
0.0
 11
-5.718562
 21
-3.265341
 31
0.0
  0
LINE
  8
3
 10
-5.218562
 20
-3.639966
 30
0.0
 11
-5.718562
 21
-3.639966
 31
0.0
  0
LINE
  8
HID
 10
-4.952937
 20
-2.655966
 30
0.0
 11
-4.952937
 21
-3.405966
 31
0.0
  0
LINE
  8
HID
 10
-4.999812
 20
-3.405966
 30
0.0
 11
-4.999812
 21
-3.655966
 31
0.0
  0
LINE
  8
CENTER
 10
-5.468562
 20
-3.120966
 30
0.0
 11
-5.468562
 21
-2.940966
 31
0.0
  0
LINE
  8
3
 10
-5.218562
 20
-2.421966
 30
0.0
 11
-5.718562
 21
-2.421966
 31
0.0
  0
LINE
  8
3
 10
-5.218562
 20
0.866218
 30
0.0
 11
-5.718562
 21
0.866218
 31
0.0
  0
LINE
  8
HID
 10
-5.718562
 20
1.280843
 30
0.0
 11
-5.218562
 21
1.280843
 31
0.0
  0
LINE
  8
HID
 10
-5.718562
 20
1.240843
 30
0.0
 11
-5.218562
 21
1.240843
 31
0.0
  0
LINE
  8
HID
 10
-5.522312
 20
1.150987
 30
0.0
 11
-5.522312
 21
0.875218
 31
0.0
  0
LINE
  8
HID
 10
-5.562312
 20
1.150987
 30
0.0
 11
-5.562312
 21
0.875218
 31
0.0
  0
LINE
  8
HID
 10
-5.374812
 20
1.150987
 30
0.0
 11
-5.374812
 21
0.875218
 31
0.0
  0
LINE
  8
HID
 10
-5.414812
 20
1.150987
 30
0.0
 11
-5.414812
 21
0.875218
 31
0.0
  0
LINE
  8
HID
 10
-5.104383
 20
1.109363
 30
0.0
 11
-5.132668
 21
1.081079
 31
0.0
  0
LINE
  8
HID
 10
-4.982549
 20
1.252694
 30
0.0
 11
-5.100989
 21
1.134253
 31
0.0
  0
ARC
  8
HID
 10
-5.10234
 20
1.19923
 30
0.0
 40
0.06499
 50
178.809396
 51
271.190604
  0
LINE
  8
HID
 10
-5.072564
 20
0.992691
 30
0.0
 11
-5.132668
 21
1.052795
 31
0.0
  0
LINE
  8
HID
 10
-5.015995
 20
1.020975
 30
0.0
 11
-5.044279
 21
0.992691
 31
0.0
  0
ARC
  8
HID
 10
-5.058422
 20
1.006833
 30
0.0
 40
0.02
 50
225.0
 51
315.0
  0
LINE
  8
HID
 10
-5.04649
 20
0.99048
 30
0.0
 11
-5.134878
 21
1.078868
 31
0.0
  0
ARC
  8
HID
 10
-5.118526
 20
1.066937
 30
0.0
 40
0.02
 50
135.0
 51
225.0
  0
LINE
  8
HID
 10
-4.972084
 20
0.977063
 30
0.0
 11
-5.148295
 21
1.153274
 31
0.0
  0
ARC
  8
HID
 10
-4.946393
 20
1.178965
 30
0.0
 40
0.160932
 50
196.130789
 51
253.869211
  0
LINE
  8
OBJ
 10
-2.687312
 20
0.855218
 30
0.0
 11
-1.468562
 21
0.855218
 31
0.0
  0
LINE
  8
3
 10
-4.093562
 20
-1.715966
 30
0.0
 11
-2.093562
 21
-1.715966
 31
0.0
  0
LINE
  8
CI
 10
-3.093562
 20
-1.187216
 30
0.0
 11
-3.093562
 21
-1.655966
 31
0.0
  0
LINE
  8
HID
 10
-3.443562
 20
-1.155966
 30
0.0
 11
-3.443562
 21
-1.655966
 31
0.0
  0
LINE
  8
HID
 10
-3.243562
 20
-1.155966
 30
0.0
 11
-3.243562
 21
-1.655966
 31
0.0
  0
LINE
  8
HID
 10
-3.264062
 20
-1.155966
 30
0.0
 11
-3.264062
 21
-1.655966
 31
0.0
  0
LINE
  8
HID
 10
-3.423062
 20
-1.155966
 30
0.0
 11
-3.423062
 21
-1.655966
 31
0.0
  0
LINE
  8
CI
 10
-3.593562
 20
-1.187216
 30
0.0
 11
-3.593562
 21
-1.655966
 31
0.0
  0
LINE
  8
CENTER
 10
-3.343562
 20
-3.780966
 30
0.0
 11
-3.343562
 21
-1.030966
 31
0.0
  0
CIRCLE
  8
CI
 10
-3.843562
 20
-2.093966
 30
0.0
 40
0.176256
  0
CIRCLE
  8
CI
 10
-3.843562
 20
-2.093966
 30
0.0
 40
0.140503
  0
POLYLINE
  8
CI
 66
     1
 10
0.0
 20
0.0
 30
0.0
 70
     1
  0
VERTEX
  8
CI
 10
-3.624562
 20
-2.093966
 30
0.0
  0
VERTEX
  8
CI
 10
-3.734062
 20
-1.904306
 30
0.0
  0
VERTEX
  8
CI
 10
-3.953062
 20
-1.904306
 30
0.0
  0
VERTEX
  8
CI
 10
-4.062562
 20
-2.093966
 30
0.0
  0
VERTEX
  8
CI
 10
-3.953062
 20
-2.283625
 30
0.0
  0
VERTEX
  8
CI
 10
-3.734062
 20
-2.283625
 30
0.0
  0
SEQEND
  8
CI
  0
LINE
  8
CI
 10
-3.903562
 20
-1.655966
 30
0.0
 11
-2.783562
 21
-1.655966
 31
0.0
  0
LINE
  8
HID
 10
-4.687312
 20
-2.405966
 30
0.0
 11
-4.687312
 21
-2.655966
 31
0.0
  0
LINE
  8
CENTER
 10
-4.843562
 20
-2.280966
 30
0.0
 11
-4.843562
 21
-3.780966
 31
0.0
  0
LINE
  8
HID
 10
-4.734187
 20
-2.655966
 30
0.0
 11
-4.734187
 21
-3.405966
 31
0.0
  0
LINE
  8
CENTER
  6
CENTER2
 10
-4.468562
 20
-3.780966
 30
0.0
 11
-4.468562
 21
-3.212821
 31
0.0
  0
LINE
  8
HID
 10
-4.687312
 20
-3.405966
 30
0.0
 11
-4.687312
 21
-3.655966
 31
0.0
  0
LINE
  8
HID
 10
-4.562312
 20
-3.405966
 30
0.0
 11
-4.468562
 21
-3.337821
 31
0.0
  0
LINE
  8
HID
 10
-4.374812
 20
-3.405966
 30
0.0
 11
-4.468562
 21
-3.337821
 31
0.0
  0
LINE
  8
HID
 10
-4.562312
 20
-3.405966
 30
0.0
 11
-4.374812
 21
-3.405966
 31
0.0
  0
LINE
  8
HID
 10
-4.374812
 20
-3.655966
 30
0.0
 11
-4.374812
 21
-3.405966
 31
0.0
  0
LINE
  8
HID
 10
-4.562312
 20
-3.655966
 30
0.0
 11
-4.562312
 21
-3.405966
 31
0.0
  0
LINE
  8
3
 10
-4.593562
 20
-1.715966
 30
0.0
 11
-4.093562
 21
-1.715966
 31
0.0
  0
POLYLINE
  8
CI
 66
     1
 10
0.0
 20
0.0
 30
0.0
 70
     1
  0
VERTEX
  8
CI
 10
-4.395572
 20
-2.281466
 30
0.0
 42
-0.133256
  0
VERTEX
  8
CI
 10
-4.443726
 20
-2.2684
 30
0.0
 42
-0.106756
  0
VERTEX
  8
CI
 10
-4.489322
 20
-2.226548
 30
0.0
 42
-0.082828
 70
     2
 50
54.73561
  0
VERTEX
  8
CI
 10
-4.5175
 20
-2.168244
 30
0.0
 42
-0.071352
  0
VERTEX
  8
CI
 10
-4.528154
 20
-2.093966
 30
0.0
 42
-0.071352
  0
VERTEX
  8
CI
 10
-4.5175
 20
-2.019687
 30
0.0
 42
-0.082828
  0
VERTEX
  8
CI
 10
-4.489322
 20
-1.961383
 30
0.0
 42
-0.106756
 70
     2
 50
125.26439
  0
VERTEX
  8
CI
 10
-4.443726
 20
-1.919531
 30
0.0
 42
-0.133256
  0
VERTEX
  8
CI
 10
-4.395572
 20
-1.906466
 30
0.0
 42
-0.133256
  0
VERTEX
  8
CI
 10
-4.347418
 20
-1.919531
 30
0.0
 42
-0.106756
  0
VERTEX
  8
CI
 10
-4.301822
 20
-1.961383
 30
0.0
 42
-0.082828
 70
     2
 50
234.73561
  0
VERTEX
  8
CI
 10
-4.273643
 20
-2.019687
 30
0.0
 42
-0.071352
  0
VERTEX
  8
CI
 10
-4.262989
 20
-2.093966
 30
0.0
 42
-0.071352
  0
VERTEX
  8
CI
 10
-4.273643
 20
-2.168244
 30
0.0
 42
-0.082828
  0
VERTEX
  8
CI
 10
-4.301822
 20
-2.226548
 30
0.0
 42
-0.106756
 70
     2
 50
305.26439
  0
VERTEX
  8
CI
 10
-4.347418
 20
-2.2684
 30
0.0
 42
-0.133256
  0
SEQEND
  8
CI
  0
POLYLINE
  8
CI
 66
     1
 10
0.0
 20
0.0
 30
0.0
  0
VERTEX
  8
CI
 10
-4.345572
 20
-2.2673
 30
0.0
 42
-0.103052
  0
VERTEX
  8
CI
 10
-4.389322
 20
-2.226548
 30
0.0
 42
-0.082828
 70
     2
 50
54.73561
  0
VERTEX
  8
CI
 10
-4.4175
 20
-2.168244
 30
0.0
 42
-0.071352
  0
VERTEX
  8
CI
 10
-4.428154
 20
-2.093966
 30
0.0
 42
-0.071352
  0
VERTEX
  8
CI
 10
-4.4175
 20
-2.019687
 30
0.0
 42
-0.082828
  0
VERTEX
  8
CI
 10
-4.389322
 20
-1.961383
 30
0.0
 42
-0.103052
 70
     2
 50
125.26439
  0
VERTEX
  8
CI
 10
-4.345572
 20
-1.920631
 30
0.0
 42
-0.133256
  0
SEQEND
  8
CI
  0
LINE
  8
3
 10
-4.593562
 20
-1.715966
 30
0.0
 11
-4.593562
 21
-2.405966
 31
0.0
  0
POLYLINE
  8
CI
 66
     1
 10
0.0
 20
0.0
 30
0.0
  0
VERTEX
  8
CI
 10
-4.373845
 20
-2.141496
 30
0.0
 42
-0.045243
  0
VERTEX
  8
CI
 10
-4.378154
 20
-2.093966
 30
0.0
 42
-0.047281
  0
VERTEX
  8
CI
 10
-4.37345
 20
-2.044323
 30
0.0
 42
-0.012861
  0
SEQEND
  8
CI
  0
POLYLINE
  8
CI
 66
     1
 10
0.0
 20
0.0
 30
0.0
  0
VERTEX
  8
CI
 10
-4.473845
 20
-2.141496
 30
0.0
 42
-0.045243
  0
VERTEX
  8
CI
 10
-4.478154
 20
-2.093966
 30
0.0
 42
-0.047281
  0
VERTEX
  8
CI
 10
-4.47345
 20
-2.044323
 30
0.0
 42
-0.012861
  0
SEQEND
  8
CI
  0
LINE
  8
3
 10
-4.093562
 20
-1.715966
 30
0.0
 11
-4.093562
 21
-2.405966
 31
0.0
  0
POLYLINE
  8
CI
 66
     1
 10
0.0
 20
0.0
 30
0.0
  0
VERTEX
  8
CI
 10
-4.270572
 20
-2.156814
 30
0.0
 42
-0.060105
  0
VERTEX
  8
CI
 10
-4.278154
 20
-2.093966
 30
0.0
 42
-0.060105
  0
VERTEX
  8
CI
 10
-4.270572
 20
-2.031117
 30
0.0
 42
-0.082828
  0
SEQEND
  8
CI
  0
POLYLINE
  8
CI
 66
     1
 10
0.0
 20
0.0
 30
0.0
  0
VERTEX
  8
CI
 10
-4.295572
 20
-2.217149
 30
0.0
 42
-0.068404
 70
     2
 50
54.73561
  0
VERTEX
  8
CI
 10
-4.3175
 20
-2.168244
 30
0.0
 42
-0.071352
  0
VERTEX
  8
CI
 10
-4.328154
 20
-2.093966
 30
0.0
 42
-0.071352
  0
VERTEX
  8
CI
 10
-4.3175
 20
-2.019687
 30
0.0
 42
-0.068404
  0
VERTEX
  8
CI
 10
-4.295572
 20
-1.970783
 30
0.0
 42
-0.106756
 70
     2
 50
125.26439
  0
SEQEND
  8
CI
  0
CIRCLE
  8
CI
 10
-3.843562
 20
-2.093966
 30
0.0
 40
0.039276
  0
LINE
  8
CI
 10
-3.903562
 20
-1.655966
 30
0.0
 11
-3.903562
 21
-1.715966
 31
0.0
  0
CIRCLE
  8
CI
 10
-2.843562
 20
-2.093966
 30
0.0
 40
0.140503
  0
CIRCLE
  8
CI
 10
-2.843562
 20
-2.093966
 30
0.0
 40
0.176256
  0
LINE
  8
3
 10
-2.593562
 20
-1.715966
 30
0.0
 11
-2.593562
 21
-2.405966
 31
0.0
  0
POLYLINE
  8
CI
 66
     1
 10
0.0
 20
0.0
 30
0.0
 70
     1
  0
VERTEX
  8
CI
 10
-3.062562
 20
-2.093966
 30
0.0
  0
VERTEX
  8
CI
 10
-2.953062
 20
-1.904306
 30
0.0
  0
VERTEX
  8
CI
 10
-2.734062
 20
-1.904306
 30
0.0
  0
VERTEX
  8
CI
 10
-2.624562
 20
-2.093966
 30
0.0
  0
VERTEX
  8
CI
 10
-2.734062
 20
-2.283625
 30
0.0
  0
VERTEX
  8
CI
 10
-2.953062
 20
-2.283625
 30
0.0
  0
SEQEND
  8
CI
  0
CIRCLE
  8
CI
 10
-2.843562
 20
-2.093966
 30
0.0
 40
0.039276
  0
LINE
  8
CI
 10
-2.783562
 20
-1.655966
 30
0.0
 11
-2.783562
 21
-1.715966
 31
0.0
  0
ARC
  8
CI
 10
-3.843562
 20
1.162179
 30
0.0
 40
0.229961
 50
245.927314
 51
294.072686
  0
ARC
  8
CI
 10
-3.843562
 20
0.812257
 30
0.0
 40
0.229961
 50
65.927314
 51
114.072686
  0
POLYLINE
  8
CI
 66
     1
 10
0.0
 20
0.0
 30
0.0
 40
0.00375
 41
0.00375
  0
VERTEX
  8
CI
 10
-3.745274
 20
0.713468
 30
0.0
 50
90.0
  0
VERTEX
  8
CI
 10
-3.941849
 20
0.713468
 30
0.0
 50
90.0
  0
SEQEND
  8
CI
  0
POLYLINE
  8
CI
 66
     1
 10
0.0
 20
0.0
 30
0.0
 40
0.00375
 41
0.00375
  0
VERTEX
  8
CI
 10
-3.745274
 20
0.859301
 30
0.0
 50
90.0
  0
VERTEX
  8
CI
 10
-3.941849
 20
0.859301
 30
0.0
 50
90.0
  0
SEQEND
  8
CI
  0
POLYLINE
  8
CI
 66
     1
 10
0.0
 20
0.0
 30
0.0
  0
VERTEX
  8
CI
 10
-3.687312
 20
0.932218
 30
0.0
 50
90.0
  0
VERTEX
  8
CI
 10
-3.999812
 20
0.932218
 30
0.0
 50
90.0
  0
SEQEND
  8
CI
  0
LINE
  8
CI
 10
-3.687312
 20
1.042218
 30
0.0
 11
-3.999812
 21
1.042218
 31
0.0
  0
LINE
  8
CI
 10
-3.999912
 20
0.932218
 30
0.0
 11
-3.687212
 21
0.932218
 31
0.0
  0
LINE
  8
CI
 10
-3.999812
 20
1.042218
 30
0.0
 11
-3.687312
 21
1.042218
 31
0.0
  0
POLYLINE
  8
CI
 66
     1
 10
0.0
 20
0.0
 30
0.0
  0
VERTEX
  8
CI
 10
-3.687312
 20
0.786384
 30
0.0
 50
90.0
  0
VERTEX
  8
CI
 10
-3.999812
 20
0.786384
 30
0.0
 50
90.0
  0
SEQEND
  8
CI
  0
POLYLINE
  8
CI
 66
     1
 10
0.0
 20
0.0
 30
0.0
 40
0.00375
 41
0.00375
  0
VERTEX
  8
CI
 10
-3.745274
 20
0.567634
 30
0.0
 50
90.0
  0
VERTEX
  8
CI
 10
-3.941849
 20
0.567634
 30
0.0
 50
90.0
  0
SEQEND
  8
CI
  0
POLYLINE
  8
CI
 66
     1
 10
0.0
 20
0.0
 30
0.0
 40
0.00375
 41
0.00375
  0
VERTEX
  8
CI
 10
-3.745274
 20
0.275968
 30
0.0
 50
90.0
  0
VERTEX
  8
CI
 10
-3.941849
 20
0.275968
 30
0.0
 50
90.0
  0
SEQEND
  8
CI
  0
POLYLINE
  8
CI
 66
     1
 10
0.0
 20
0.0
 30
0.0
 40
0.00375
 41
0.00375
  0
VERTEX
  8
CI
 10
-3.745274
 20
0.421801
 30
0.0
 50
90.0
  0
VERTEX
  8
CI
 10
-3.941849
 20
0.421801
 30
0.0
 50
90.0
  0
SEQEND
  8
CI
  0
POLYLINE
  8
CI
 66
     1
 10
0.0
 20
0.0
 30
0.0
 40
0.00375
 41
0.00375
  0
VERTEX
  8
CI
 10
-3.745274
 20
0.126134
 30
0.0
 50
90.0
  0
VERTEX
  8
CI
 10
-3.941849
 20
0.126134
 30
0.0
 50
90.0
  0
SEQEND
  8
CI
  0
ARC
  8
CI
 10
-3.718962
 20
-0.355125
 30
0.0
 40
0.06499
 50
223.809396
 51
316.190604
  0
POLYLINE
  8
CI
 66
     1
 10
0.0
 20
0.0
 30
0.0
  0
VERTEX
  8
CI
 10
-3.687312
 20
0.494718
 30
0.0
 50
90.0
  0
VERTEX
  8
CI
 10
-3.999812
 20
0.494718
 30
0.0
 50
90.0
  0
SEQEND
  8
CI
  0
POLYLINE
  8
CI
 66
     1
 10
0.0
 20
0.0
 30
0.0
  0
VERTEX
  8
CI
 10
-3.687312
 20
0.640551
 30
0.0
 50
90.0
  0
VERTEX
  8
CI
 10
-3.999812
 20
0.640551
 30
0.0
 50
90.0
  0
SEQEND
  8
CI
  0
POLYLINE
  8
CI
 66
     1
 10
0.0
 20
0.0
 30
0.0
  0
VERTEX
  8
CI
 10
-3.687312
 20
0.199051
 30
0.0
 50
90.0
  0
VERTEX
  8
CI
 10
-3.999812
 20
0.199051
 30
0.0
 50
90.0
  0
SEQEND
  8
CI
  0
POLYLINE
  8
CI
 66
     1
 10
0.0
 20
0.0
 30
0.0
  0
VERTEX
  8
CI
 10
-3.687312
 20
0.348884
 30
0.0
 50
90.0
  0
VERTEX
  8
CI
 10
-3.999812
 20
0.348884
 30
0.0
 50
90.0
  0
SEQEND
  8
CI
  0
LINE
  8
CI
 10
-3.672062
 20
0.079884
 30
0.0
 11
-4.015062
 21
0.079884
 31
0.0
  0
LINE
  8
CI
 10
-3.672062
 20
-0.107616
 30
0.0
 11
-4.015062
 21
-0.107616
 31
0.0
  0
LINE
  8
CI
 10
-3.672062
 20
-0.170116
 30
0.0
 11
-4.015062
 21
-0.170116
 31
0.0
  0
LINE
  8
CI
 10
-3.687362
 20
-0.138866
 30
0.0
 11
-3.999762
 21
-0.138866
 31
0.0
  0
LINE
  8
CI
 10
-3.672062
 20
-0.232616
 30
0.0
 11
-4.015062
 21
-0.232616
 31
0.0
  0
LINE
  8
CI
 10
-3.718962
 20
-0.420116
 30
0.0
 11
-3.968162
 21
-0.420116
 31
0.0
  0
LINE
  8
CI
 10
-4.015062
 20
0.079884
 30
0.0
 11
-4.015062
 21
-0.107616
 31
0.0
  0
LINE
  8
CENTER
 10
-3.843562
 20
1.118344
 30
0.0
 11
-3.843562
 21
-0.532368
 31
0.0
  0
LINE
  8
CI
 10
-3.781062
 20
-0.420116
 30
0.0
 11
-3.781062
 21
-0.460116
 31
0.0
  0
ARC
  8
CI
 10
-3.801062
 20
-0.460116
 30
0.0
 40
0.02
 50
270.0
 51
0.0
  0
ARC
  8
CI
 10
-3.886062
 20
-0.460116
 30
0.0
 40
0.02
 50
180.0
 51
270.0
  0
LINE
  8
CI
 10
-3.906062
 20
-0.420116
 30
0.0
 11
-3.906062
 21
-0.460116
 31
0.0
  0
ARC
  8
CI
 10
-3.843562
 20
-0.259183
 30
0.0
 40
0.160932
 50
241.130789
 51
298.869211
  0
LINE
  8
CI
 10
-3.801062
 20
-0.480116
 30
0.0
 11
-3.886062
 21
-0.480116
 31
0.0
  0
LINE
  8
CI
 10
-3.781062
 20
-0.463242
 30
0.0
 11
-3.906062
 21
-0.463242
 31
0.0
  0
LINE
  8
CI
 10
-3.921262
 20
-0.232616
 30
0.0
 11
-3.921262
 21
-0.400116
 31
0.0
  0
LINE
  8
CI
 10
-3.765862
 20
-0.232616
 30
0.0
 11
-3.765862
 21
-0.400116
 31
0.0
  0
LINE
  8
CI
 10
-4.015062
 20
-0.107616
 30
0.0
 11
-3.999762
 21
-0.138866
 31
0.0
  0
LINE
  8
CI
 10
-4.015062
 20
-0.170116
 30
0.0
 11
-4.015062
 21
-0.400116
 31
0.0
  0
LINE
  8
CI
 10
-3.999762
 20
-0.138866
 30
0.0
 11
-4.015062
 21
-0.170116
 31
0.0
  0
ARC
  8
CI
 10
-3.968162
 20
-0.355125
 30
0.0
 40
0.06499
 50
223.809396
 51
316.190604
  0
LINE
  8
HID
 10
-4.750865
 20
1.153593
 30
0.0
 11
-4.762144
 21
1.120677
 31
0.0
  0
LINE
  8
HID
 10
-4.71795
 20
1.164871
 30
0.0
 11
-4.750865
 21
1.153593
 31
0.0
  0
LINE
  8
HID
 10
-4.762144
 20
1.120677
 30
0.0
 11
-4.924778
 21
0.958042
 31
0.0
  0
LINE
  8
CI
 10
-3.999812
 20
0.932218
 30
0.0
 11
-3.999812
 21
0.083884
 31
0.0
  0
ARC
  8
CI
 10
-3.999862
 20
1.039874
 30
0.0
 40
0.107656
 50
234.510637
 51
305.489363
  0
ARC
  8
CI
 10
-3.999862
 20
0.934562
 30
0.0
 40
0.107656
 50
54.510637
 51
125.489363
  0
LINE
  8
CI
 10
-4.062362
 20
1.022218
 30
0.0
 11
-4.062362
 21
0.952218
 31
0.0
  0
LINE
  8
CI
 10
-3.937362
 20
1.022218
 30
0.0
 11
-3.937362
 21
0.952218
 31
0.0
  0
LINE
  8
CI
 10
-2.672062
 20
0.079884
 30
0.0
 11
-2.672062
 21
-0.107616
 31
0.0
  0
LINE
  8
CI
 10
-3.015062
 20
0.079884
 30
0.0
 11
-3.015062
 21
-0.107616
 31
0.0
  0
LINE
  8
CENTER
 10
-2.843562
 20
1.118344
 30
0.0
 11
-2.843562
 21
-0.532368
 31
0.0
  0
LINE
  8
CI
 10
-3.672062
 20
0.079884
 30
0.0
 11
-3.672062
 21
-0.107616
 31
0.0
  0
LINE
  8
CI
 10
-3.562312
 20
-1.155966
 30
0.0
 11
-3.124812
 21
-1.155966
 31
0.0
  0
LINE
  8
CI
 10
-3.593562
 20
-1.187216
 30
0.0
 11
-3.093562
 21
-1.187216
 31
0.0
  0
LINE
  8
CI
 10
-3.562312
 20
-1.155966
 30
0.0
 11
-3.593562
 21
-1.187216
 31
0.0
  0
LINE
  8
CI
 10
-3.672062
 20
-0.107616
 30
0.0
 11
-3.687362
 21
-0.138866
 31
0.0
  0
LINE
  8
CI
 10
-3.672062
 20
-0.170116
 30
0.0
 11
-3.672062
 21
-0.400116
 31
0.0
  0
LINE
  8
CI
 10
-3.687362
 20
-0.138866
 30
0.0
 11
-3.672062
 21
-0.170116
 31
0.0
  0
LINE
  8
CI
 10
-3.124812
 20
-1.155966
 30
0.0
 11
-3.093562
 21
-1.187216
 31
0.0
  0
LINE
  8
CI
 10
-2.672062
 20
-0.107616
 30
0.0
 11
-3.015062
 21
-0.107616
 31
0.0
  0
LINE
  8
CI
 10
-2.687362
 20
-0.138866
 30
0.0
 11
-2.999762
 21
-0.138866
 31
0.0
  0
LINE
  8
CI
 10
-2.801062
 20
-0.480116
 30
0.0
 11
-2.886062
 21
-0.480116
 31
0.0
  0
LINE
  8
CI
 10
-2.672062
 20
-0.170116
 30
0.0
 11
-3.015062
 21
-0.170116
 31
0.0
  0
LINE
  8
CI
 10
-2.672062
 20
-0.232616
 30
0.0
 11
-3.015062
 21
-0.232616
 31
0.0
  0
LINE
  8
CI
 10
-2.718962
 20
-0.420116
 30
0.0
 11
-2.968162
 21
-0.420116
 31
0.0
  0
ARC
  8
CI
 10
-2.843562
 20
-0.259183
 30
0.0
 40
0.160932
 50
241.130789
 51
298.869211
  0
LINE
  8
CI
 10
-2.781062
 20
-0.463242
 30
0.0
 11
-2.906062
 21
-0.463242
 31
0.0
  0
LINE
  8
CI
 10
-3.015062
 20
-0.107616
 30
0.0
 11
-2.999762
 21
-0.138866
 31
0.0
  0
ARC
  8
CI
 10
-2.968162
 20
-0.355125
 30
0.0
 40
0.06499
 50
223.809396
 51
316.190604
  0
LINE
  8
CI
 10
-2.906062
 20
-0.420116
 30
0.0
 11
-2.906062
 21
-0.460116
 31
0.0
  0
ARC
  8
CI
 10
-2.886062
 20
-0.460116
 30
0.0
 40
0.02
 50
180.0
 51
270.0
  0
LINE
  8
CI
 10
-3.015062
 20
-0.170116
 30
0.0
 11
-3.015062
 21
-0.400116
 31
0.0
  0
LINE
  8
CI
 10
-2.921262
 20
-0.232616
 30
0.0
 11
-2.921262
 21
-0.400116
 31
0.0
  0
LINE
  8
CI
 10
-2.999762
 20
-0.138866
 30
0.0
 11
-3.015062
 21
-0.170116
 31
0.0
  0
LINE
  8
CI
 10
-2.672062
 20
-0.107616
 30
0.0
 11
-2.687362
 21
-0.138866
 31
0.0
  0
ARC
  8
CI
 10
-2.718962
 20
-0.355125
 30
0.0
 40
0.06499
 50
223.809396
 51
316.190604
  0
LINE
  8
CI
 10
-2.781062
 20
-0.420116
 30
0.0
 11
-2.781062
 21
-0.460116
 31
0.0
  0
LINE
  8
CI
 10
-2.672062
 20
-0.170116
 30
0.0
 11
-2.672062
 21
-0.400116
 31
0.0
  0
LINE
  8
CI
 10
-2.765862
 20
-0.232616
 30
0.0
 11
-2.765862
 21
-0.400116
 31
0.0
  0
ARC
  8
CI
 10
-2.801062
 20
-0.460116
 30
0.0
 40
0.02
 50
270.0
 51
0.0
  0
LINE
  8
CI
 10
-2.687362
 20
-0.138866
 30
0.0
 11
-2.672062
 21
-0.170116
 31
0.0
  0
LINE
  8
OBJ
 10
-3.687312
 20
0.855218
 30
0.0
 11
-2.999812
 21
0.855218
 31
0.0
  0
LINE
  8
CI
 10
-3.687312
 20
0.932218
 30
0.0
 11
-3.687312
 21
0.083884
 31
0.0
  0
LINE
  8
CI
 10
-3.624762
 20
1.022218
 30
0.0
 11
-3.624762
 21
0.952218
 31
0.0
  0
LINE
  8
CI
 10
-3.749762
 20
1.022218
 30
0.0
 11
-3.749762
 21
0.952218
 31
0.0
  0
ARC
  8
CI
 10
-3.687262
 20
1.039874
 30
0.0
 40
0.107656
 50
234.510637
 51
305.489363
  0
ARC
  8
CI
 10
-3.687262
 20
0.934562
 30
0.0
 40
0.107656
 50
54.510637
 51
125.489363
  0
LINE
  8
CI
 10
-2.999812
 20
0.932218
 30
0.0
 11
-2.999812
 21
0.083884
 31
0.0
  0
LINE
  8
CI
 10
-2.687312
 20
0.932218
 30
0.0
 11
-2.687312
 21
0.083884
 31
0.0
  0
POLYLINE
  8
CI
 66
     1
 10
0.0
 20
0.0
 30
0.0
  0
VERTEX
  8
CI
 10
-2.687312
 20
0.494718
 30
0.0
 50
90.0
  0
VERTEX
  8
CI
 10
-2.999812
 20
0.494718
 30
0.0
 50
90.0
  0
SEQEND
  8
CI
  0
POLYLINE
  8
CI
 66
     1
 10
0.0
 20
0.0
 30
0.0
 40
0.00375
 41
0.00375
  0
VERTEX
  8
CI
 10
-2.745274
 20
0.567634
 30
0.0
 50
90.0
  0
VERTEX
  8
CI
 10
-2.941849
 20
0.567634
 30
0.0
 50
90.0
  0
SEQEND
  8
CI
  0
POLYLINE
  8
CI
 66
     1
 10
0.0
 20
0.0
 30
0.0
  0
VERTEX
  8
CI
 10
-2.687312
 20
0.348884
 30
0.0
 50
90.0
  0
VERTEX
  8
CI
 10
-2.999812
 20
0.348884
 30
0.0
 50
90.0
  0
SEQEND
  8
CI
  0
POLYLINE
  8
CI
 66
     1
 10
0.0
 20
0.0
 30
0.0
 40
0.00375
 41
0.00375
  0
VERTEX
  8
CI
 10
-2.745274
 20
0.275968
 30
0.0
 50
90.0
  0
VERTEX
  8
CI
 10
-2.941849
 20
0.275968
 30
0.0
 50
90.0
  0
SEQEND
  8
CI
  0
POLYLINE
  8
CI
 66
     1
 10
0.0
 20
0.0
 30
0.0
 40
0.00375
 41
0.00375
  0
VERTEX
  8
CI
 10
-2.745274
 20
0.421801
 30
0.0
 50
90.0
  0
VERTEX
  8
CI
 10
-2.941849
 20
0.421801
 30
0.0
 50
90.0
  0
SEQEND
  8
CI
  0
POLYLINE
  8
CI
 66
     1
 10
0.0
 20
0.0
 30
0.0
  0
VERTEX
  8
CI
 10
-2.687312
 20
0.199051
 30
0.0
 50
90.0
  0
VERTEX
  8
CI
 10
-2.999812
 20
0.199051
 30
0.0
 50
90.0
  0
SEQEND
  8
CI
  0
LINE
  8
CI
 10
-2.672062
 20
0.079884
 30
0.0
 11
-3.015062
 21
0.079884
 31
0.0
  0
POLYLINE
  8
CI
 66
     1
 10
0.0
 20
0.0
 30
0.0
 40
0.00375
 41
0.00375
  0
VERTEX
  8
CI
 10
-2.745274
 20
0.126134
 30
0.0
 50
90.0
  0
VERTEX
  8
CI
 10
-2.941849
 20
0.126134
 30
0.0
 50
90.0
  0
SEQEND
  8
CI
  0
POLYLINE
  8
CI
 66
     1
 10
0.0
 20
0.0
 30
0.0
  0
VERTEX
  8
CI
 10
-2.687312
 20
0.932218
 30
0.0
 50
90.0
  0
VERTEX
  8
CI
 10
-2.999812
 20
0.932218
 30
0.0
 50
90.0
  0
SEQEND
  8
CI
  0
LINE
  8
CI
 10
-2.687312
 20
1.042218
 30
0.0
 11
-2.999812
 21
1.042218
 31
0.0
  0
LINE
  8
CI
 10
-2.999912
 20
0.932218
 30
0.0
 11
-2.687212
 21
0.932218
 31
0.0
  0
LINE
  8
CI
 10
-2.999812
 20
1.042218
 30
0.0
 11
-2.687312
 21
1.042218
 31
0.0
  0
ARC
  8
CI
 10
-2.843562
 20
1.162179
 30
0.0
 40
0.229961
 50
245.927314
 51
294.072686
  0
ARC
  8
CI
 10
-2.843562
 20
0.812257
 30
0.0
 40
0.229961
 50
65.927314
 51
114.072686
  0
POLYLINE
  8
CI
 66
     1
 10
0.0
 20
0.0
 30
0.0
  0
VERTEX
  8
CI
 10
-2.687312
 20
0.786384
 30
0.0
 50
90.0
  0
VERTEX
  8
CI
 10
-2.999812
 20
0.786384
 30
0.0
 50
90.0
  0
SEQEND
  8
CI
  0
POLYLINE
  8
CI
 66
     1
 10
0.0
 20
0.0
 30
0.0
 40
0.00375
 41
0.00375
  0
VERTEX
  8
CI
 10
-2.745274
 20
0.713468
 30
0.0
 50
90.0
  0
VERTEX
  8
CI
 10
-2.941849
 20
0.713468
 30
0.0
 50
90.0
  0
SEQEND
  8
CI
  0
POLYLINE
  8
CI
 66
     1
 10
0.0
 20
0.0
 30
0.0
 40
0.00375
 41
0.00375
  0
VERTEX
  8
CI
 10
-2.745274
 20
0.859301
 30
0.0
 50
90.0
  0
VERTEX
  8
CI
 10
-2.941849
 20
0.859301
 30
0.0
 50
90.0
  0
SEQEND
  8
CI
  0
POLYLINE
  8
CI
 66
     1
 10
0.0
 20
0.0
 30
0.0
  0
VERTEX
  8
CI
 10
-2.687312
 20
0.640551
 30
0.0
 50
90.0
  0
VERTEX
  8
CI
 10
-2.999812
 20
0.640551
 30
0.0
 50
90.0
  0
SEQEND
  8
CI
  0
LINE
  8
CI
 10
-2.937362
 20
1.022218
 30
0.0
 11
-2.937362
 21
0.952218
 31
0.0
  0
LINE
  8
CI
 10
-3.062362
 20
1.022218
 30
0.0
 11
-3.062362
 21
0.952218
 31
0.0
  0
ARC
  8
CI
 10
-2.999862
 20
1.039874
 30
0.0
 40
0.107656
 50
234.510637
 51
305.489363
  0
ARC
  8
CI
 10
-2.999862
 20
0.934562
 30
0.0
 40
0.107656
 50
54.510637
 51
125.489363
  0
LINE
  8
CI
 10
-2.624762
 20
1.022218
 30
0.0
 11
-2.624762
 21
0.952218
 31
0.0
  0
LINE
  8
CI
 10
-2.749762
 20
1.022218
 30
0.0
 11
-2.749762
 21
0.952218
 31
0.0
  0
ARC
  8
CI
 10
-2.687262
 20
1.039874
 30
0.0
 40
0.107656
 50
234.510637
 51
305.489363
  0
ARC
  8
CI
 10
-2.687262
 20
0.934562
 30
0.0
 40
0.107656
 50
54.510637
 51
125.489363
  0
LINE
  8
3
 10
-1.468562
 20
-2.421966
 30
0.0
 11
-0.968562
 21
-2.421966
 31
0.0
  0
LINE
  8
3
 10
-1.468562
 20
-3.639966
 30
0.0
 11
-0.968562
 21
-3.639966
 31
0.0
  0
LINE
  8
HID
 10
-1.468562
 20
-2.836591
 30
0.0
 11
-0.968562
 21
-2.836591
 31
0.0
  0
LINE
  8
HID
 10
-1.468562
 20
-2.796591
 30
0.0
 11
-0.968562
 21
-2.796591
 31
0.0
  0
LINE
  8
HID
 10
-1.468562
 20
-3.265341
 30
0.0
 11
-0.968562
 21
-3.265341
 31
0.0
  0
LINE
  8
HID
 10
-1.468562
 20
-3.225341
 30
0.0
 11
-0.968562
 21
-3.225341
 31
0.0
  0
LINE
  8
HID
 10
-1.687312
 20
-2.405966
 30
0.0
 11
-1.687312
 21
-2.655966
 31
0.0
  0
LINE
  8
HID
 10
-1.999812
 20
-2.405966
 30
0.0
 11
-1.999812
 21
-2.655966
 31
0.0
  0
LINE
  8
OBJ
 10
-1.468562
 20
-2.405966
 30
0.0
 11
-1.468562
 21
-3.655966
 31
0.0
  0
LINE
  8
CENTER
 10
-1.843562
 20
-2.280966
 30
0.0
 11
-1.843562
 21
-3.780966
 31
0.0
  0
LINE
  8
HID
 10
-1.999812
 20
-2.655966
 30
0.0
 11
-1.687312
 21
-2.655966
 31
0.0
  0
LINE
  8
HID
 10
-1.999812
 20
-3.405966
 30
0.0
 11
-1.687312
 21
-3.405966
 31
0.0
  0
LINE
  8
CENTER
  6
CENTER2
 10
-2.218562
 20
-3.780966
 30
0.0
 11
-2.218562
 21
-3.212821
 31
0.0
  0
LINE
  8
HID
 10
-2.312312
 20
-3.405966
 30
0.0
 11
-2.218562
 21
-3.337821
 31
0.0
  0
LINE
  8
HID
 10
-2.312312
 20
-3.405966
 30
0.0
 11
-2.124812
 21
-3.405966
 31
0.0
  0
LINE
  8
HID
 10
-2.312312
 20
-3.655966
 30
0.0
 11
-2.312312
 21
-3.405966
 31
0.0
  0
LINE
  8
HID
 10
-1.999812
 20
-3.405966
 30
0.0
 11
-1.999812
 21
-3.655966
 31
0.0
  0
LINE
  8
HID
 10
-2.124812
 20
-3.405966
 30
0.0
 11
-2.218562
 21
-3.337821
 31
0.0
  0
LINE
  8
HID
 10
-2.124812
 20
-3.655966
 30
0.0
 11
-2.124812
 21
-3.405966
 31
0.0
  0
LINE
  8
HID
 10
-1.734187
 20
-2.655966
 30
0.0
 11
-1.734187
 21
-3.405966
 31
0.0
  0
LINE
  8
HID
 10
-1.952937
 20
-2.655966
 30
0.0
 11
-1.952937
 21
-3.405966
 31
0.0
  0
LINE
  8
HID
 10
-1.687312
 20
-3.405966
 30
0.0
 11
-1.687312
 21
-3.655966
 31
0.0
  0
POLYLINE
  8
CI
 66
     1
 10
0.0
 20
0.0
 30
0.0
  0
VERTEX
  8
CI
 10
-2.341552
 20
-2.2673
 30
0.0
 42
0.103052
  0
VERTEX
  8
CI
 10
-2.297802
 20
-2.226548
 30
0.0
 42
0.082828
 70
     2
 50
54.73561
  0
VERTEX
  8
CI
 10
-2.269623
 20
-2.168244
 30
0.0
 42
0.071352
  0
VERTEX
  8
CI
 10
-2.258969
 20
-2.093966
 30
0.0
 42
0.071352
  0
VERTEX
  8
CI
 10
-2.269623
 20
-2.019687
 30
0.0
 42
0.082828
  0
VERTEX
  8
CI
 10
-2.297802
 20
-1.961383
 30
0.0
 42
0.103052
 70
     2
 50
125.26439
  0
VERTEX
  8
CI
 10
-2.341552
 20
-1.920631
 30
0.0
 42
0.133256
  0
SEQEND
  8
CI
  0
POLYLINE
  8
CI
 66
     1
 10
0.0
 20
0.0
 30
0.0
 70
     1
  0
VERTEX
  8
CI
 10
-2.291552
 20
-2.281466
 30
0.0
 42
0.133256
  0
VERTEX
  8
CI
 10
-2.243397
 20
-2.2684
 30
0.0
 42
0.106756
  0
VERTEX
  8
CI
 10
-2.197802
 20
-2.226548
 30
0.0
 42
0.082828
 70
     2
 50
54.73561
  0
VERTEX
  8
CI
 10
-2.169623
 20
-2.168244
 30
0.0
 42
0.071352
  0
VERTEX
  8
CI
 10
-2.158969
 20
-2.093966
 30
0.0
 42
0.071352
  0
VERTEX
  8
CI
 10
-2.169623
 20
-2.019687
 30
0.0
 42
0.082828
  0
VERTEX
  8
CI
 10
-2.197802
 20
-1.961383
 30
0.0
 42
0.106756
 70
     2
 50
125.26439
  0
VERTEX
  8
CI
 10
-2.243397
 20
-1.919531
 30
0.0
 42
0.133256
  0
VERTEX
  8
CI
 10
-2.291552
 20
-1.906466
 30
0.0
 42
0.133256
  0
VERTEX
  8
CI
 10
-2.339706
 20
-1.919531
 30
0.0
 42
0.106756
  0
VERTEX
  8
CI
 10
-2.385302
 20
-1.961383
 30
0.0
 42
0.082828
 70
     2
 50
234.73561
  0
VERTEX
  8
CI
 10
-2.41348
 20
-2.019687
 30
0.0
 42
0.071352
  0
VERTEX
  8
CI
 10
-2.424134
 20
-2.093966
 30
0.0
 42
0.071352
  0
VERTEX
  8
CI
 10
-2.41348
 20
-2.168244
 30
0.0
 42
0.082828
  0
VERTEX
  8
CI
 10
-2.385302
 20
-2.226548
 30
0.0
 42
0.106756
 70
     2
 50
305.26439
  0
VERTEX
  8
CI
 10
-2.339706
 20
-2.2684
 30
0.0
 42
0.133256
  0
SEQEND
  8
CI
  0
LINE
  8
3
 10
-2.093562
 20
-1.715966
 30
0.0
 11
-2.093562
 21
-2.405966
 31
0.0
  0
POLYLINE
  8
CI
 66
     1
 10
0.0
 20
0.0
 30
0.0
  0
VERTEX
  8
CI
 10
-2.416552
 20
-2.156814
 30
0.0
 42
0.060105
  0
VERTEX
  8
CI
 10
-2.408969
 20
-2.093966
 30
0.0
 42
0.060105
  0
VERTEX
  8
CI
 10
-2.416552
 20
-2.031117
 30
0.0
 42
0.082828
  0
SEQEND
  8
CI
  0
POLYLINE
  8
CI
 66
     1
 10
0.0
 20
0.0
 30
0.0
  0
VERTEX
  8
CI
 10
-2.391552
 20
-2.217149
 30
0.0
 42
0.068404
 70
     2
 50
54.73561
  0
VERTEX
  8
CI
 10
-2.369623
 20
-2.168244
 30
0.0
 42
0.071352
  0
VERTEX
  8
CI
 10
-2.358969
 20
-2.093966
 30
0.0
 42
0.071352
  0
VERTEX
  8
CI
 10
-2.369623
 20
-2.019687
 30
0.0
 42
0.068404
  0
VERTEX
  8
CI
 10
-2.391552
 20
-1.970783
 30
0.0
 42
0.106756
 70
     2
 50
125.26439
  0
SEQEND
  8
CI
  0
POLYLINE
  8
CI
 66
     1
 10
0.0
 20
0.0
 30
0.0
  0
VERTEX
  8
CI
 10
-2.313279
 20
-2.141496
 30
0.0
 42
0.045243
  0
VERTEX
  8
CI
 10
-2.308969
 20
-2.093966
 30
0.0
 42
0.047281
  0
VERTEX
  8
CI
 10
-2.313674
 20
-2.044323
 30
0.0
 42
0.012861
  0
SEQEND
  8
CI
  0
POLYLINE
  8
CI
 66
     1
 10
0.0
 20
0.0
 30
0.0
  0
VERTEX
  8
CI
 10
-2.213279
 20
-2.141496
 30
0.0
 42
0.045243
  0
VERTEX
  8
CI
 10
-2.208969
 20
-2.093966
 30
0.0
 42
0.047281
  0
VERTEX
  8
CI
 10
-2.213674
 20
-2.044323
 30
0.0
 42
0.012861
  0
SEQEND
  8
CI
  0
LINE
  8
3
 10
-0.968562
 20
-2.421966
 30
0.0
 11
-0.968562
 21
-3.639966
 31
0.0
  0
CIRCLE
  8
HID
 10
-1.218562
 20
-3.030966
 30
0.0
 40
0.1
  0
LINE
  8
CENTER
 10
-1.218562
 20
-3.120966
 30
0.0
 11
-1.218562
 21
-2.940966
 31
0.0
  0
CIRCLE
  8
CI
 10
-1.218562
 20
-3.030966
 30
0.0
 40
0.0795
  0
LINE
  8
CENTER
 10
-1.128562
 20
-3.030966
 30
0.0
 11
-1.308562
 21
-3.030966
 31
0.0
  0
LINE
  8
3
 10
-1.468562
 20
0.866218
 30
0.0
 11
-0.968562
 21
0.866218
 31
0.0
  0
LINE
  8
HID
 10
-0.968562
 20
1.240843
 30
0.0
 11
-1.468562
 21
1.240843
 31
0.0
  0
LINE
  8
HID
 10
-0.968562
 20
1.280843
 30
0.0
 11
-1.468562
 21
1.280843
 31
0.0
  0
ARC
  8
HID
 10
-1.760995
 20
1.023019
 30
0.0
 40
0.06499
 50
268.809396
 51
1.190604
  0
LINE
  8
HID
 10
-1.814459
 20
1.142809
 30
0.0
 11
-1.696019
 21
1.024369
 31
0.0
  0
LINE
  8
HID
 10
-1.71504
 20
0.977063
 30
0.0
 11
-1.538829
 21
1.153274
 31
0.0
  0
LINE
  8
HID
 10
-1.969174
 20
1.164871
 30
0.0
 11
-1.936258
 21
1.153593
 31
0.0
  0
LINE
  8
HID
 10
-1.936258
 20
1.153593
 30
0.0
 11
-1.92498
 21
1.120677
 31
0.0
  0
LINE
  8
HID
 10
-1.92498
 20
1.120677
 30
0.0
 11
-1.762345
 21
0.958042
 31
0.0
  0
ARC
  8
HID
 10
-1.584784
 20
1.19923
 30
0.0
 40
0.06499
 50
268.809396
 51
1.190604
  0
LINE
  8
HID
 10
-1.58274
 20
1.109363
 30
0.0
 11
-1.554456
 21
1.081079
 31
0.0
  0
POINT
  8
3
 10
-1.468562
 20
0.855218
 30
0.0
  0
ARC
  8
HID
 10
-1.568598
 20
1.066937
 30
0.0
 40
0.02
 50
315.0
 51
45.0
  0
ARC
  8
HID
 10
-1.628702
 20
1.006833
 30
0.0
 40
0.02
 50
225.0
 51
315.0
  0
LINE
  8
HID
 10
-1.671128
 20
1.020975
 30
0.0
 11
-1.642844
 21
0.992691
 31
0.0
  0
LINE
  8
HID
 10
-1.640634
 20
0.99048
 30
0.0
 11
-1.552245
 21
1.078868
 31
0.0
  0
ARC
  8
HID
 10
-1.74073
 20
1.178965
 30
0.0
 40
0.160932
 50
286.130789
 51
343.869211
  0
LINE
  8
HID
 10
-1.61456
 20
0.992691
 30
0.0
 11
-1.554456
 21
1.052795
 31
0.0
  0
LINE
  8
HID
 10
-1.704575
 20
1.252694
 30
0.0
 11
-1.586134
 21
1.134253
 31
0.0
  0
LINE
  8
HID
 10
-1.124812
 20
1.150987
 30
0.0
 11
-1.124812
 21
0.875218
 31
0.0
  0
LINE
  8
HID
 10
-1.164812
 20
1.150987
 30
0.0
 11
-1.164812
 21
0.875218
 31
0.0
  0
LINE
  8
HID
 10
-1.272312
 20
1.150987
 30
0.0
 11
-1.272312
 21
0.875218
 31
0.0
  0
LINE
  8
HID
 10
-1.312312
 20
1.150987
 30
0.0
 11
-1.312312
 21
0.875218
 31
0.0
  0
CIRCLE
  8
CI
 10
-4.843562
 20
2.169218
 30
0.0
 40
0.171875
  0
CIRCLE
  8
CI
 10
-4.843562
 20
2.169218
 30
0.0
 40
0.109375
  0
LINE
  8
CENTER
 10
-4.933562
 20
2.169218
 30
0.0
 11
-4.753562
 21
2.169218
 31
0.0
  0
LINE
  8
HID
 10
-4.827905
 20
1.539991
 30
0.0
 11
-4.960487
 21
1.407409
 31
0.0
  0
LINE
  8
OBJ
 10
-5.218562
 20
2.855218
 30
0.0
 11
-1.468562
 21
2.855218
 31
0.0
  0
LINE
  8
3
 10
-5.218562
 20
2.084218
 30
0.0
 11
-5.718562
 21
2.084218
 31
0.0
  0
LINE
  8
HID
 10
-5.718562
 20
1.709593
 30
0.0
 11
-5.218562
 21
1.709593
 31
0.0
  0
LINE
  8
HID
 10
-5.718562
 20
1.669593
 30
0.0
 11
-5.218562
 21
1.669593
 31
0.0
  0
LINE
  8
CENTER
  6
CENTER2
 10
-5.079241
 20
1.475218
 30
0.0
 11
-5.857883
 21
1.475218
 31
0.0
  0
LINE
  8
HID
 10
-4.960487
 20
1.407409
 30
0.0
 11
-4.971766
 21
1.374493
 31
0.0
  0
LINE
  8
HID
 10
-4.971766
 20
1.374493
 30
0.0
 11
-5.004681
 21
1.363214
 31
0.0
  0
CIRCLE
  8
CI
 10
-2.468562
 20
2.542218
 30
0.0
 40
0.18375
  0
CIRCLE
  8
3
 10
-2.468562
 20
2.542218
 30
0.0
 40
0.209515
  0
ARC
  8
CI
 10
-3.343562
 20
2.169218
 30
0.0
 40
0.56
 50
99.663252
 51
80.284851
  0
CIRCLE
  8
3
 10
-3.343562
 20
2.169218
 30
0.0
 40
0.575625
  0
POLYLINE
  8
CI
 66
     1
 10
0.0
 20
0.0
 30
0.0
 70
     1
  0
VERTEX
  8
CI
 10
-4.258976
 20
2.612218
 30
0.0
  0
VERTEX
  8
CI
 10
-4.299391
 20
2.542218
 30
0.0
  0
VERTEX
  8
CI
 10
-4.258976
 20
2.472218
 30
0.0
  0
VERTEX
  8
CI
 10
-4.178147
 20
2.472218
 30
0.0
  0
VERTEX
  8
CI
 10
-4.137733
 20
2.542218
 30
0.0
  0
VERTEX
  8
CI
 10
-4.178147
 20
2.612218
 30
0.0
  0
SEQEND
  8
CI
  0
CIRCLE
  8
CI
 10
-4.218562
 20
2.542218
 30
0.0
 40
0.18375
  0
CIRCLE
  8
3
 10
-4.218562
 20
2.542218
 30
0.0
 40
0.209515
  0
ARC
  8
HID
 10
-4.500887
 20
1.624329
 30
0.0
 40
0.229961
 50
20.927314
 51
69.072686
  0
ARC
  8
HID
 10
-4.229417
 20
1.674758
 30
0.0
 40
0.107656
 50
189.510637
 51
260.489363
  0
POLYLINE
  8
HID
 66
     1
 10
0.0
 20
0.0
 30
0.0
  0
VERTEX
  8
HID
 10
-4.305647
 20
1.59874
 30
0.0
 50
90.0
  0
VERTEX
  8
HID
 10
-4.526618
 20
1.819711
 30
0.0
 50
90.0
  0
SEQEND
  8
HID
  0
POLYLINE
  8
HID
 66
     1
 10
0.0
 20
0.0
 30
0.0
  0
VERTEX
  8
HID
 10
-4.305577
 20
1.598669
 30
0.0
 50
90.0
  0
VERTEX
  8
HID
 10
-4.526548
 20
1.81964
 30
0.0
 50
90.0
  0
SEQEND
  8
HID
  0
LINE
  8
HID
 10
-4.227795
 20
1.676451
 30
0.0
 11
-4.448766
 21
1.897422
 31
0.0
  0
ARC
  8
HID
 10
-4.253455
 20
1.871762
 30
0.0
 40
0.229961
 50
200.927314
 51
249.072686
  0
LINE
  8
HID
 10
-4.526618
 20
1.819711
 30
0.0
 11
-4.305506
 21
1.598599
 31
0.0
  0
LINE
  8
HID
 10
-4.448766
 20
1.897422
 30
0.0
 11
-4.227795
 21
1.676451
 31
0.0
  0
LINE
  8
HID
 10
-4.305577
 20
1.598669
 30
0.0
 11
-4.59608
 21
1.308166
 31
0.0
  0
ARC
  8
HID
 10
-4.524926
 20
1.821333
 30
0.0
 40
0.107656
 50
9.510637
 51
80.489363
  0
POLYLINE
  8
HID
 66
     1
 10
0.0
 20
0.0
 30
0.0
 40
0.00375
 41
0.00375
  0
VERTEX
  8
HID
 10
-4.501313
 20
1.485046
 30
0.0
 50
90.0
  0
VERTEX
  8
HID
 10
-4.640312
 20
1.624046
 30
0.0
 50
90.0
  0
SEQEND
  8
HID
  0
LINE
  8
HID
 10
-4.526618
 20
1.819711
 30
0.0
 11
-4.817121
 21
1.529208
 31
0.0
  0
POLYLINE
  8
HID
 66
     1
 10
0.0
 20
0.0
 30
0.0
 40
0.00375
 41
0.00375
  0
VERTEX
  8
HID
 10
-4.604432
 20
1.381926
 30
0.0
 50
90.0
  0
VERTEX
  8
HID
 10
-4.743432
 20
1.520926
 30
0.0
 50
90.0
  0
SEQEND
  8
HID
  0
LINE
  8
HID
 10
-4.585367
 20
1.297454
 30
0.0
 11
-4.827905
 21
1.539991
 31
0.0
  0
POLYLINE
  8
HID
 66
     1
 10
0.0
 20
0.0
 30
0.0
  0
VERTEX
  8
HID
 10
-4.511887
 20
1.3925
 30
0.0
 50
90.0
  0
VERTEX
  8
HID
 10
-4.732858
 20
1.613471
 30
0.0
 50
90.0
  0
SEQEND
  8
HID
  0
ARC
  8
HID
 10
-4.450459
 20
1.8958
 30
0.0
 40
0.107656
 50
189.510637
 51
260.489363
  0
LINE
  8
HID
 10
-4.507138
 20
1.927509
 30
0.0
 11
-4.556635
 21
1.878012
 31
0.0
  0
LINE
  8
HID
 10
-4.418749
 20
1.839121
 30
0.0
 11
-4.468247
 21
1.789623
 31
0.0
  0
POLYLINE
  8
HID
 66
     1
 10
0.0
 20
0.0
 30
0.0
  0
VERTEX
  8
HID
 10
-4.408767
 20
1.49562
 30
0.0
 50
90.0
  0
VERTEX
  8
HID
 10
-4.629738
 20
1.716591
 30
0.0
 50
90.0
  0
SEQEND
  8
HID
  0
POLYLINE
  8
HID
 66
     1
 10
0.0
 20
0.0
 30
0.0
 40
0.00375
 41
0.00375
  0
VERTEX
  8
HID
 10
-4.398193
 20
1.588166
 30
0.0
 50
90.0
  0
VERTEX
  8
HID
 10
-4.537192
 20
1.727165
 30
0.0
 50
90.0
  0
SEQEND
  8
HID
  0
LINE
  8
CENTER
 10
-4.843562
 20
2.079218
 30
0.0
 11
-4.843562
 21
2.259218
 31
0.0
  0
LINE
  8
CENTER
 10
-4.468562
 20
2.079218
 30
0.0
 11
-4.468562
 21
2.259218
 31
0.0
  0
LINE
  8
CENTER
 10
-4.558562
 20
2.169218
 30
0.0
 11
-4.378562
 21
2.169218
 31
0.0
  0
CIRCLE
  8
HID
 10
-4.468562
 20
2.169218
 30
0.0
 40
0.09375
  0
LINE
  8
HID
 10
-4.286096
 20
1.706468
 30
0.0
 11
-4.335593
 21
1.65697
 31
0.0
  0
LINE
  8
HID
 10
-4.197708
 20
1.618079
 30
0.0
 11
-4.247205
 21
1.568582
 31
0.0
  0
ARC
  8
HID
 10
-4.303884
 20
1.600291
 30
0.0
 40
0.107656
 50
9.510637
 51
80.489363
  0
LINE
  8
CENTER
 10
-3.343562
 20
2.519218
 30
0.0
 11
-3.343562
 21
2.699218
 31
0.0
  0
ARC
  8
CI
 10
-3.343562
 20
2.609218
 30
0.0
 40
0.0945
 50
180.0
 51
0.0
  0
ARC
  8
CI
 10
-3.343562
 20
2.169218
 30
0.0
 40
0.21875
 50
106.60155
 51
73.39845
  0
ARC
  8
CI
 10
-3.343562
 20
2.169218
 30
0.0
 40
0.25
 50
104.477512
 51
75.522488
  0
LINE
  8
CI
 10
-3.281062
 20
2.411279
 30
0.0
 11
-3.281062
 21
2.353905
 31
0.0
  0
LINE
  8
CI
 10
-3.406062
 20
2.411279
 30
0.0
 11
-3.406062
 21
2.353905
 31
0.0
  0
LINE
  8
CI
 10
-3.406062
 20
2.353905
 30
0.0
 11
-3.281062
 21
2.353905
 31
0.0
  0
LINE
  8
CENTER
 10
-3.343562
 20
2.079218
 30
0.0
 11
-3.343562
 21
2.259218
 31
0.0
  0
CIRCLE
  8
CI
 10
-3.343562
 20
2.169218
 30
0.0
 40
0.0795
  0
LINE
  8
CENTER
 10
-3.433562
 20
2.169218
 30
0.0
 11
-3.253562
 21
2.169218
 31
0.0
  0
CIRCLE
  8
HID
 10
-3.343562
 20
2.169218
 30
0.0
 40
0.1
  0
LINE
  8
CENTER
 10
-3.433562
 20
2.609218
 30
0.0
 11
-3.253562
 21
2.609218
 31
0.0
  0
LINE
  8
CI
 10
-3.249062
 20
2.609218
 30
0.0
 11
-3.249062
 21
2.721187
 31
0.0
  0
LINE
  8
CI
 10
-3.438062
 20
2.609218
 30
0.0
 11
-3.438062
 21
2.721187
 31
0.0
  0
LINE
  8
3
 10
-1.468562
 20
2.084218
 30
0.0
 11
-0.968562
 21
2.084218
 31
0.0
  0
LINE
  8
CENTER
  6
CENTER2
 10
-1.607883
 20
1.475218
 30
0.0
 11
-0.829241
 21
1.475218
 31
0.0
  0
LINE
  8
HID
 10
-0.968562
 20
1.669593
 30
0.0
 11
-1.468562
 21
1.669593
 31
0.0
  0
LINE
  8
HID
 10
-0.968562
 20
1.709593
 30
0.0
 11
-1.468562
 21
1.709593
 31
0.0
  0
POLYLINE
  8
CI
 66
     1
 10
0.0
 20
0.0
 30
0.0
 70
     1
  0
VERTEX
  8
CI
 10
-2.508976
 20
2.612218
 30
0.0
  0
VERTEX
  8
CI
 10
-2.549391
 20
2.542218
 30
0.0
  0
VERTEX
  8
CI
 10
-2.508976
 20
2.472218
 30
0.0
  0
VERTEX
  8
CI
 10
-2.428147
 20
2.472218
 30
0.0
  0
VERTEX
  8
CI
 10
-2.387733
 20
2.542218
 30
0.0
  0
VERTEX
  8
CI
 10
-2.428147
 20
2.612218
 30
0.0
  0
SEQEND
  8
CI
  0
POLYLINE
  8
HID
 66
     1
 10
0.0
 20
0.0
 30
0.0
 40
0.00375
 41
0.00375
  0
VERTEX
  8
HID
 10
-2.082691
 20
1.381926
 30
0.0
  0
VERTEX
  8
HID
 10
-1.943692
 20
1.520926
 30
0.0
  0
SEQEND
  8
HID
  0
LINE
  8
HID
 10
-2.101756
 20
1.297454
 30
0.0
 11
-1.859219
 21
1.539991
 31
0.0
  0
LINE
  8
HID
 10
-2.160505
 20
1.819711
 30
0.0
 11
-1.870002
 21
1.529208
 31
0.0
  0
POLYLINE
  8
HID
 66
     1
 10
0.0
 20
0.0
 30
0.0
  0
VERTEX
  8
HID
 10
-2.175237
 20
1.3925
 30
0.0
  0
VERTEX
  8
HID
 10
-1.954266
 20
1.613471
 30
0.0
  0
SEQEND
  8
HID
  0
CIRCLE
  8
CI
 10
-1.843562
 20
2.169218
 30
0.0
 40
0.171875
  0
ARC
  8
HID
 10
-2.162198
 20
1.821333
 30
0.0
 40
0.107656
 50
99.510637
 51
170.489363
  0
ARC
  8
HID
 10
-2.186236
 20
1.624329
 30
0.0
 40
0.229961
 50
110.927314
 51
159.072686
  0
ARC
  8
HID
 10
-2.433668
 20
1.871762
 30
0.0
 40
0.229961
 50
290.927314
 51
339.072686
  0
LINE
  8
HID
 10
-2.160505
 20
1.819711
 30
0.0
 11
-2.381617
 21
1.598599
 31
0.0
  0
POLYLINE
  8
HID
 66
     1
 10
0.0
 20
0.0
 30
0.0
  0
VERTEX
  8
HID
 10
-2.381547
 20
1.598669
 30
0.0
  0
VERTEX
  8
HID
 10
-2.160576
 20
1.81964
 30
0.0
  0
SEQEND
  8
HID
  0
POLYLINE
  8
HID
 66
     1
 10
0.0
 20
0.0
 30
0.0
  0
VERTEX
  8
HID
 10
-2.381476
 20
1.59874
 30
0.0
  0
VERTEX
  8
HID
 10
-2.160505
 20
1.819711
 30
0.0
  0
SEQEND
  8
HID
  0
LINE
  8
HID
 10
-2.238358
 20
1.897422
 30
0.0
 11
-2.459329
 21
1.676451
 31
0.0
  0
LINE
  8
HID
 10
-2.459329
 20
1.676451
 30
0.0
 11
-2.238358
 21
1.897422
 31
0.0
  0
LINE
  8
HID
 10
-2.381547
 20
1.598669
 30
0.0
 11
-2.091044
 21
1.308166
 31
0.0
  0
LINE
  8
HID
 10
-2.489416
 20
1.618079
 30
0.0
 11
-2.439918
 21
1.568582
 31
0.0
  0
ARC
  8
HID
 10
-2.457707
 20
1.674758
 30
0.0
 40
0.107656
 50
279.510637
 51
350.489363
  0
ARC
  8
HID
 10
-2.383239
 20
1.600291
 30
0.0
 40
0.107656
 50
99.510637
 51
170.489363
  0
LINE
  8
HID
 10
-2.401028
 20
1.706468
 30
0.0
 11
-2.35153
 21
1.65697
 31
0.0
  0
LINE
  8
HID
 10
-2.268374
 20
1.839121
 30
0.0
 11
-2.218877
 21
1.789623
 31
0.0
  0
ARC
  8
HID
 10
-2.236665
 20
1.8958
 30
0.0
 40
0.107656
 50
279.510637
 51
350.489363
  0
POLYLINE
  8
HID
 66
     1
 10
0.0
 20
0.0
 30
0.0
 40
0.00375
 41
0.00375
  0
VERTEX
  8
HID
 10
-2.288931
 20
1.588166
 30
0.0
  0
VERTEX
  8
HID
 10
-2.149931
 20
1.727165
 30
0.0
  0
SEQEND
  8
HID
  0
LINE
  8
HID
 10
-2.179986
 20
1.927509
 30
0.0
 11
-2.130489
 21
1.878012
 31
0.0
  0
POLYLINE
  8
HID
 66
     1
 10
0.0
 20
0.0
 30
0.0
  0
VERTEX
  8
HID
 10
-2.278356
 20
1.49562
 30
0.0
  0
VERTEX
  8
HID
 10
-2.057385
 20
1.716591
 30
0.0
  0
SEQEND
  8
HID
  0
POLYLINE
  8
HID
 66
     1
 10
0.0
 20
0.0
 30
0.0
 40
0.00375
 41
0.00375
  0
VERTEX
  8
HID
 10
-2.185811
 20
1.485046
 30
0.0
  0
VERTEX
  8
HID
 10
-2.046811
 20
1.624046
 30
0.0
  0
SEQEND
  8
HID
  0
LINE
  8
CENTER
 10
-2.308562
 20
2.169218
 30
0.0
 11
-2.128562
 21
2.169218
 31
0.0
  0
CIRCLE
  8
HID
 10
-2.218562
 20
2.169218
 30
0.0
 40
0.09375
  0
LINE
  8
CENTER
 10
-2.218562
 20
2.079218
 30
0.0
 11
-2.218562
 21
2.259218
 31
0.0
  0
LINE
  8
HID
 10
-1.715358
 20
1.374493
 30
0.0
 11
-1.682442
 21
1.363214
 31
0.0
  0
LINE
  8
HID
 10
-1.726636
 20
1.407409
 30
0.0
 11
-1.715358
 21
1.374493
 31
0.0
  0
LINE
  8
HID
 10
-1.859219
 20
1.539991
 30
0.0
 11
-1.726636
 21
1.407409
 31
0.0
  0
LINE
  8
CENTER
 10
-1.843562
 20
2.079218
 30
0.0
 11
-1.843562
 21
2.259218
 31
0.0
  0
LINE
  8
CENTER
 10
-1.933562
 20
2.169218
 30
0.0
 11
-1.753562
 21
2.169218
 31
0.0
  0
CIRCLE
  8
CI
 10
-1.843562
 20
2.169218
 30
0.0
 40
0.109375
  0
LINE
  8
CENTER
 10
2.416496
 20
-3.030966
 30
0.0
 11
1.798555
 21
-3.030966
 31
0.0
  0
ARC
  8
CI
 10
2.017736
 20
-1.937666
 30
0.0
 40
0.107656
 50
324.510637
 51
35.489363
  0
ARC
  8
CI
 10
1.895431
 20
-2.093966
 30
0.0
 40
0.229961
 50
335.927314
 51
24.072686
  0
LINE
  8
CI
 10
2.108392
 20
-2.312766
 30
0.0
 11
2.038392
 21
-2.312766
 31
0.0
  0
ARC
  8
CI
 10
2.017736
 20
-2.250266
 30
0.0
 40
0.107656
 50
324.510637
 51
35.489363
  0
LINE
  8
3
 10
1.942392
 20
-2.421966
 30
0.0
 11
3.160392
 21
-2.421966
 31
0.0
  0
LINE
  8
OBJ
 10
1.931392
 20
-2.405966
 30
0.0
 11
3.931392
 21
-2.405966
 31
0.0
  0
LINE
  8
CENTER
 10
2.267668
 20
-2.093966
 30
0.0
 11
0.526291
 21
-2.093966
 31
0.0
  0
LINE
  8
HID
 10
1.942392
 20
-2.937216
 30
0.0
 11
2.200114
 21
-2.937216
 31
0.0
  0
LINE
  8
HID
 10
1.942392
 20
-2.977216
 30
0.0
 11
2.200114
 21
-2.977216
 31
0.0
  0
LINE
  8
HID
 10
1.942392
 20
-3.084716
 30
0.0
 11
2.200114
 21
-3.084716
 31
0.0
  0
LINE
  8
HID
 10
1.942392
 20
-3.124716
 30
0.0
 11
2.200114
 21
-3.124716
 31
0.0
  0
CIRCLE
  8
CI
 10
2.114267
 20
-3.468091
 30
0.0
 40
0.140625
  0
CIRCLE
  8
3
 10
2.114267
 20
-3.468091
 30
0.0
 40
0.162749
  0
POLYLINE
  8
CI
 66
     1
 10
0.0
 20
0.0
 30
0.0
 70
     1
  0
VERTEX
  8
CI
 10
2.069162
 20
-3.389966
 30
0.0
  0
VERTEX
  8
CI
 10
2.024056
 20
-3.468091
 30
0.0
  0
VERTEX
  8
CI
 10
2.069162
 20
-3.546216
 30
0.0
  0
VERTEX
  8
CI
 10
2.159373
 20
-3.546216
 30
0.0
  0
VERTEX
  8
CI
 10
2.204478
 20
-3.468091
 30
0.0
  0
VERTEX
  8
CI
 10
2.159373
 20
-3.389966
 30
0.0
  0
SEQEND
  8
CI
  0
LINE
  8
3
 10
1.942392
 20
-3.639966
 30
0.0
 11
3.160392
 21
-3.639966
 31
0.0
  0
LINE
  8
OBJ
 10
1.931392
 20
-3.655966
 30
0.0
 11
3.931392
 21
-3.655966
 31
0.0
  0
CIRCLE
  8
3
 10
2.114267
 20
-2.593841
 30
0.0
 40
0.162749
  0
CIRCLE
  8
CI
 10
2.114267
 20
-2.593841
 30
0.0
 40
0.140625
  0
POLYLINE
  8
CI
 66
     1
 10
0.0
 20
0.0
 30
0.0
 70
     1
  0
VERTEX
  8
CI
 10
2.069162
 20
-2.515716
 30
0.0
  0
VERTEX
  8
CI
 10
2.024056
 20
-2.593841
 30
0.0
  0
VERTEX
  8
CI
 10
2.069162
 20
-2.671966
 30
0.0
  0
VERTEX
  8
CI
 10
2.159373
 20
-2.671966
 30
0.0
  0
VERTEX
  8
CI
 10
2.204478
 20
-2.593841
 30
0.0
  0
VERTEX
  8
CI
 10
2.159373
 20
-2.515716
 30
0.0
  0
SEQEND
  8
CI
  0
LINE
  8
CI
 10
0.948309
 20
-1.937766
 30
0.0
 11
0.917059
 21
-1.922466
 31
0.0
  0
LINE
  8
CI
 10
0.948309
 20
-2.250166
 30
0.0
 11
0.917059
 21
-2.265466
 31
0.0
  0
LINE
  8
CI
 10
0.917059
 20
-2.265466
 30
0.0
 11
0.917059
 21
-1.922466
 31
0.0
  0
LINE
  8
CI
 10
0.854559
 20
-2.265466
 30
0.0
 11
0.854559
 21
-1.922466
 31
0.0
  0
ARC
  8
CI
 10
0.732049
 20
-1.969366
 30
0.0
 40
0.06499
 50
133.809396
 51
226.190604
  0
LINE
  8
CI
 10
0.667059
 20
-2.156466
 30
0.0
 11
0.627059
 21
-2.156466
 31
0.0
  0
LINE
  8
CI
 10
0.667059
 20
-2.031466
 30
0.0
 11
0.627059
 21
-2.031466
 31
0.0
  0
LINE
  8
CI
 10
0.607059
 20
-2.136466
 30
0.0
 11
0.607059
 21
-2.051466
 31
0.0
  0
ARC
  8
CI
 10
0.627059
 20
-2.136466
 30
0.0
 40
0.02
 50
180.0
 51
270.0
  0
ARC
  8
CI
 10
0.627059
 20
-2.051466
 30
0.0
 40
0.02
 50
90.0
 51
180.0
  0
LINE
  8
CI
 10
0.623933
 20
-2.156466
 30
0.0
 11
0.623933
 21
-2.031466
 31
0.0
  0
LINE
  8
CI
 10
0.667059
 20
-2.218566
 30
0.0
 11
0.667059
 21
-1.969366
 31
0.0
  0
ARC
  8
CI
 10
0.827991
 20
-2.093966
 30
0.0
 40
0.160932
 50
151.130789
 51
208.869211
  0
ARC
  8
CI
 10
0.732049
 20
-2.218566
 30
0.0
 40
0.06499
 50
133.809396
 51
226.190604
  0
LINE
  8
CI
 10
0.854559
 20
-2.016266
 30
0.0
 11
0.687059
 21
-2.016266
 31
0.0
  0
LINE
  8
CI
 10
0.854559
 20
-2.171666
 30
0.0
 11
0.687059
 21
-2.171666
 31
0.0
  0
LINE
  8
CI
 10
0.917059
 20
-2.265466
 30
0.0
 11
0.687059
 21
-2.265466
 31
0.0
  0
LINE
  8
CI
 10
0.917059
 20
-1.922466
 30
0.0
 11
0.687059
 21
-1.922466
 31
0.0
  0
LINE
  8
3
 10
1.942392
 20
-2.421966
 30
0.0
 11
1.942392
 21
-3.639966
 31
0.0
  0
LINE
  8
OBJ
 10
1.931392
 20
-2.405966
 30
0.0
 11
1.931392
 21
-3.655966
 31
0.0
  0
LINE
  8
CI
 10
2.015392
 20
-1.937716
 30
0.0
 11
1.167059
 21
-1.937716
 31
0.0
  0
LINE
  8
CI
 10
2.015392
 20
-2.250216
 30
0.0
 11
1.167059
 21
-2.250216
 31
0.0
  0
POLYLINE
  8
CI
 66
     1
 10
0.0
 20
0.0
 30
0.0
  0
VERTEX
  8
CI
 10
1.286226
 20
-2.250216
 30
0.0
  0
VERTEX
  8
CI
 10
1.286226
 20
-1.937716
 30
0.0
  0
SEQEND
  8
CI
  0
POLYLINE
  8
CI
 66
     1
 10
0.0
 20
0.0
 30
0.0
  0
VERTEX
  8
CI
 10
1.432059
 20
-2.250216
 30
0.0
  0
VERTEX
  8
CI
 10
1.432059
 20
-1.937716
 30
0.0
  0
SEQEND
  8
CI
  0
LINE
  8
CI
 10
0.979559
 20
-2.265466
 30
0.0
 11
0.979559
 21
-1.922466
 31
0.0
  0
LINE
  8
CI
 10
0.948309
 20
-2.250166
 30
0.0
 11
0.948309
 21
-1.937766
 31
0.0
  0
LINE
  8
CI
 10
1.167059
 20
-2.265466
 30
0.0
 11
1.167059
 21
-1.922466
 31
0.0
  0
POLYLINE
  8
CI
 66
     1
 10
0.0
 20
0.0
 30
0.0
 40
0.00375
 41
0.00375
  0
VERTEX
  8
CI
 10
1.213309
 20
-2.192253
 30
0.0
  0
VERTEX
  8
CI
 10
1.213309
 20
-1.995678
 30
0.0
  0
SEQEND
  8
CI
  0
LINE
  8
CI
 10
0.979559
 20
-2.265466
 30
0.0
 11
0.948309
 21
-2.250166
 31
0.0
  0
LINE
  8
CI
 10
1.167059
 20
-2.265466
 30
0.0
 11
0.979559
 21
-2.265466
 31
0.0
  0
POLYLINE
  8
CI
 66
     1
 10
0.0
 20
0.0
 30
0.0
 40
0.00375
 41
0.00375
  0
VERTEX
  8
CI
 10
1.504976
 20
-2.192253
 30
0.0
  0
VERTEX
  8
CI
 10
1.504976
 20
-1.995678
 30
0.0
  0
SEQEND
  8
CI
  0
POLYLINE
  8
CI
 66
     1
 10
0.0
 20
0.0
 30
0.0
 40
0.00375
 41
0.00375
  0
VERTEX
  8
CI
 10
1.359142
 20
-2.192253
 30
0.0
  0
VERTEX
  8
CI
 10
1.359142
 20
-1.995678
 30
0.0
  0
SEQEND
  8
CI
  0
LINE
  8
CI
 10
0.979559
 20
-1.922466
 30
0.0
 11
0.948309
 21
-1.937766
 31
0.0
  0
LINE
  8
CI
 10
1.167059
 20
-1.922466
 30
0.0
 11
0.979559
 21
-1.922466
 31
0.0
  0
ARC
  8
CI
 10
2.123048
 20
-1.937666
 30
0.0
 40
0.107656
 50
144.510637
 51
215.489363
  0
POLYLINE
  8
CI
 66
     1
 10
0.0
 20
0.0
 30
0.0
  0
VERTEX
  8
CI
 10
1.723726
 20
-2.250216
 30
0.0
  0
VERTEX
  8
CI
 10
1.723726
 20
-1.937716
 30
0.0
  0
SEQEND
  8
CI
  0
POLYLINE
  8
CI
 66
     1
 10
0.0
 20
0.0
 30
0.0
  0
VERTEX
  8
CI
 10
1.869559
 20
-2.250216
 30
0.0
  0
VERTEX
  8
CI
 10
1.869559
 20
-1.937716
 30
0.0
  0
SEQEND
  8
CI
  0
POLYLINE
  8
CI
 66
     1
 10
0.0
 20
0.0
 30
0.0
  0
VERTEX
  8
CI
 10
2.015392
 20
-2.250216
 30
0.0
  0
VERTEX
  8
CI
 10
2.015392
 20
-1.937716
 30
0.0
  0
SEQEND
  8
CI
  0
LINE
  8
CI
 10
2.015392
 20
-1.937616
 30
0.0
 11
2.015392
 21
-2.250316
 31
0.0
  0
POLYLINE
  8
CI
 66
     1
 10
0.0
 20
0.0
 30
0.0
  0
VERTEX
  8
CI
 10
1.577892
 20
-2.250216
 30
0.0
  0
VERTEX
  8
CI
 10
1.577892
 20
-1.937716
 30
0.0
  0
SEQEND
  8
CI
  0
POLYLINE
  8
CI
 66
     1
 10
0.0
 20
0.0
 30
0.0
 40
0.00375
 41
0.00375
  0
VERTEX
  8
CI
 10
1.796642
 20
-2.192253
 30
0.0
  0
VERTEX
  8
CI
 10
1.796642
 20
-1.995678
 30
0.0
  0
SEQEND
  8
CI
  0
POLYLINE
  8
CI
 66
     1
 10
0.0
 20
0.0
 30
0.0
 40
0.00375
 41
0.00375
  0
VERTEX
  8
CI
 10
1.650809
 20
-2.192253
 30
0.0
  0
VERTEX
  8
CI
 10
1.650809
 20
-1.995678
 30
0.0
  0
SEQEND
  8
CI
  0
LINE
  8
CI
 10
2.105392
 20
-2.000166
 30
0.0
 11
2.035392
 21
-2.000166
 31
0.0
  0
LINE
  8
CI
 10
2.105392
 20
-2.187766
 30
0.0
 11
2.035392
 21
-2.187766
 31
0.0
  0
POLYLINE
  8
CI
 66
     1
 10
0.0
 20
0.0
 30
0.0
 40
0.00375
 41
0.00375
  0
VERTEX
  8
CI
 10
1.942476
 20
-2.192253
 30
0.0
  0
VERTEX
  8
CI
 10
1.942476
 20
-1.995678
 30
0.0
  0
SEQEND
  8
CI
  0
ARC
  8
CI
 10
2.245353
 20
-2.093966
 30
0.0
 40
0.229961
 50
155.927314
 51
204.072686
  0
ARC
  8
CI
 10
2.123048
 20
-2.250266
 30
0.0
 40
0.107656
 50
144.510637
 51
215.489363
  0
LINE
  8
CI
 10
2.105392
 20
-1.875166
 30
0.0
 11
2.035392
 21
-1.875166
 31
0.0
  0
LINE
  8
HID
 10
3.151642
 20
-1.155966
 30
0.0
 11
3.151642
 21
-1.655966
 31
0.0
  0
LINE
  8
CI
 10
3.495392
 20
-1.187216
 30
0.0
 11
3.495392
 21
-1.655966
 31
0.0
  0
LINE
  8
HID
 10
3.339142
 20
-1.155966
 30
0.0
 11
3.339142
 21
-1.655966
 31
0.0
  0
LINE
  8
HID
 10
3.191642
 20
-1.155966
 30
0.0
 11
3.191642
 21
-1.655966
 31
0.0
  0
LINE
  8
HID
 10
3.299142
 20
-1.155966
 30
0.0
 11
3.299142
 21
-1.655966
 31
0.0
  0
LINE
  8
CI
 10
2.995392
 20
-1.187216
 30
0.0
 11
2.995392
 21
-1.655966
 31
0.0
  0
LINE
  8
CENTER
 10
3.245392
 20
-1.030966
 30
0.0
 11
3.245392
 21
-3.780966
 31
0.0
  0
LINE
  8
CI
 10
2.685392
 20
-1.655966
 30
0.0
 11
3.805392
 21
-1.655966
 31
0.0
  0
LINE
  8
3
 10
2.125392
 20
-1.715966
 30
0.0
 11
3.875392
 21
-1.715966
 31
0.0
  0
LINE
  8
HID
 10
3.151642
 20
-3.405966
 30
0.0
 11
3.339142
 21
-3.405966
 31
0.0
  0
LINE
  8
HID
 10
3.339142
 20
-3.405966
 30
0.0
 11
3.245392
 21
-3.337821
 31
0.0
  0
LINE
  8
HID
 10
3.066517
 20
-2.655966
 30
0.0
 11
3.410267
 21
-2.655966
 31
0.0
  0
LINE
  8
HID
 10
3.066517
 20
-3.405966
 30
0.0
 11
3.410267
 21
-3.405966
 31
0.0
  0
LINE
  8
HID
 10
3.066517
 20
-2.405966
 30
0.0
 11
3.066517
 21
-2.655966
 31
0.0
  0
CIRCLE
  8
3
 10
2.988517
 20
-2.593841
 30
0.0
 40
0.162749
  0
POLYLINE
  8
CI
 66
     1
 10
0.0
 20
0.0
 30
0.0
 70
     1
  0
VERTEX
  8
CI
 10
2.943412
 20
-2.515716
 30
0.0
  0
VERTEX
  8
CI
 10
2.898306
 20
-2.593841
 30
0.0
  0
VERTEX
  8
CI
 10
2.943412
 20
-2.671966
 30
0.0
  0
VERTEX
  8
CI
 10
3.033623
 20
-2.671966
 30
0.0
  0
VERTEX
  8
CI
 10
3.078728
 20
-2.593841
 30
0.0
  0
VERTEX
  8
CI
 10
3.033623
 20
-2.515716
 30
0.0
  0
SEQEND
  8
CI
  0
CIRCLE
  8
CI
 10
2.988517
 20
-2.593841
 30
0.0
 40
0.140625
  0
LINE
  8
3
 10
3.160392
 20
-2.421966
 30
0.0
 11
3.160392
 21
-3.639966
 31
0.0
  0
CIRCLE
  8
CI
 10
2.551392
 20
-3.030966
 30
0.0
 40
0.234375
  0
CIRCLE
  8
HID
 10
2.551392
 20
-3.030966
 30
0.0
 40
0.265516
  0
LINE
  8
CENTER
 10
2.641392
 20
-3.030966
 30
0.0
 11
2.461392
 21
-3.030966
 31
0.0
  0
LINE
  8
CENTER
 10
2.551392
 20
-3.120966
 30
0.0
 11
2.551392
 21
-2.940966
 31
0.0
  0
LINE
  8
HID
 10
3.129017
 20
-2.655966
 30
0.0
 11
3.129017
 21
-3.405966
 31
0.0
  0
CIRCLE
  8
CI
 10
2.988517
 20
-3.468091
 30
0.0
 40
0.140625
  0
CIRCLE
  8
3
 10
2.988517
 20
-3.468091
 30
0.0
 40
0.162749
  0
POLYLINE
  8
CI
 66
     1
 10
0.0
 20
0.0
 30
0.0
 70
     1
  0
VERTEX
  8
CI
 10
2.943412
 20
-3.389966
 30
0.0
  0
VERTEX
  8
CI
 10
2.898306
 20
-3.468091
 30
0.0
  0
VERTEX
  8
CI
 10
2.943412
 20
-3.546216
 30
0.0
  0
VERTEX
  8
CI
 10
3.033623
 20
-3.546216
 30
0.0
  0
VERTEX
  8
CI
 10
3.078728
 20
-3.468091
 30
0.0
  0
VERTEX
  8
CI
 10
3.033623
 20
-3.389966
 30
0.0
  0
SEQEND
  8
CI
  0
LINE
  8
HID
 10
3.151642
 20
-3.405966
 30
0.0
 11
3.245392
 21
-3.337821
 31
0.0
  0
LINE
  8
HID
 10
3.151642
 20
-3.655966
 30
0.0
 11
3.151642
 21
-3.405966
 31
0.0
  0
LINE
  8
HID
 10
3.066517
 20
-3.405966
 30
0.0
 11
3.066517
 21
-3.655966
 31
0.0
  0
LINE
  8
CI
 10
2.125392
 20
-2.250216
 30
0.0
 11
2.125392
 21
-1.937716
 31
0.0
  0
LINE
  8
CI
 10
2.125392
 20
-1.937716
 30
0.0
 11
2.125392
 21
-2.250216
 31
0.0
  0
LINE
  8
3
 10
2.625392
 20
-1.715966
 30
0.0
 11
2.625392
 21
-2.405966
 31
0.0
  0
LINE
  8
3
 10
2.125392
 20
-1.715966
 30
0.0
 11
2.125392
 21
-2.405966
 31
0.0
  0
LINE
  8
CI
 10
2.685392
 20
-1.655966
 30
0.0
 11
2.685392
 21
-1.715966
 31
0.0
  0
POLYLINE
  8
CI
 66
     1
 10
0.0
 20
0.0
 30
0.0
  0
VERTEX
  8
CI
 10
2.977402
 20
-2.2693
 30
0.0
 42
-0.103052
  0
VERTEX
  8
CI
 10
2.933652
 20
-2.228548
 30
0.0
 42
-0.082828
 70
     2
 50
54.73561
  0
VERTEX
  8
CI
 10
2.905474
 20
-2.170244
 30
0.0
 42
-0.071352
  0
VERTEX
  8
CI
 10
2.89482
 20
-2.095966
 30
0.0
 42
-0.071352
  0
VERTEX
  8
CI
 10
2.905474
 20
-2.021687
 30
0.0
 42
-0.082828
  0
VERTEX
  8
CI
 10
2.933652
 20
-1.963383
 30
0.0
 42
-0.103052
 70
     2
 50
125.26439
  0
VERTEX
  8
CI
 10
2.977402
 20
-1.922631
 30
0.0
 42
-0.133256
  0
SEQEND
  8
CI
  0
POLYLINE
  8
CI
 66
     1
 10
0.0
 20
0.0
 30
0.0
 70
     1
  0
VERTEX
  8
CI
 10
2.927402
 20
-2.283466
 30
0.0
 42
-0.133256
  0
VERTEX
  8
CI
 10
2.879248
 20
-2.2704
 30
0.0
 42
-0.106756
  0
VERTEX
  8
CI
 10
2.833652
 20
-2.228548
 30
0.0
 42
-0.082828
 70
     2
 50
54.73561
  0
VERTEX
  8
CI
 10
2.805474
 20
-2.170244
 30
0.0
 42
-0.071352
  0
VERTEX
  8
CI
 10
2.79482
 20
-2.095966
 30
0.0
 42
-0.071352
  0
VERTEX
  8
CI
 10
2.805474
 20
-2.021687
 30
0.0
 42
-0.082828
  0
VERTEX
  8
CI
 10
2.833652
 20
-1.963383
 30
0.0
 42
-0.106756
 70
     2
 50
125.26439
  0
VERTEX
  8
CI
 10
2.879248
 20
-1.921531
 30
0.0
 42
-0.133256
  0
VERTEX
  8
CI
 10
2.927402
 20
-1.908466
 30
0.0
 42
-0.133256
  0
VERTEX
  8
CI
 10
2.975556
 20
-1.921531
 30
0.0
 42
-0.106756
  0
VERTEX
  8
CI
 10
3.021152
 20
-1.963383
 30
0.0
 42
-0.082828
 70
     2
 50
234.73561
  0
VERTEX
  8
CI
 10
3.049331
 20
-2.021687
 30
0.0
 42
-0.071352
  0
VERTEX
  8
CI
 10
3.059985
 20
-2.095966
 30
0.0
 42
-0.071352
  0
VERTEX
  8
CI
 10
3.049331
 20
-2.170244
 30
0.0
 42
-0.082828
  0
VERTEX
  8
CI
 10
3.021152
 20
-2.228548
 30
0.0
 42
-0.106756
 70
     2
 50
305.26439
  0
VERTEX
  8
CI
 10
2.975556
 20
-2.2704
 30
0.0
 42
-0.133256
  0
SEQEND
  8
CI
  0
LINE
  8
3
 10
3.125392
 20
-1.715966
 30
0.0
 11
3.125392
 21
-2.405966
 31
0.0
  0
POLYLINE
  8
CI
 66
     1
 10
0.0
 20
0.0
 30
0.0
  0
VERTEX
  8
CI
 10
2.949129
 20
-2.143496
 30
0.0
 42
-0.045243
  0
VERTEX
  8
CI
 10
2.94482
 20
-2.095966
 30
0.0
 42
-0.047281
  0
VERTEX
  8
CI
 10
2.949525
 20
-2.046323
 30
0.0
 42
-0.012861
  0
SEQEND
  8
CI
  0
POLYLINE
  8
CI
 66
     1
 10
0.0
 20
0.0
 30
0.0
  0
VERTEX
  8
CI
 10
2.849129
 20
-2.143496
 30
0.0
 42
-0.045243
  0
VERTEX
  8
CI
 10
2.84482
 20
-2.095966
 30
0.0
 42
-0.047281
  0
VERTEX
  8
CI
 10
2.849525
 20
-2.046323
 30
0.0
 42
-0.012861
  0
SEQEND
  8
CI
  0
POLYLINE
  8
CI
 66
     1
 10
0.0
 20
0.0
 30
0.0
  0
VERTEX
  8
CI
 10
3.052402
 20
-2.158814
 30
0.0
 42
-0.060105
  0
VERTEX
  8
CI
 10
3.04482
 20
-2.095966
 30
0.0
 42
-0.060105
  0
VERTEX
  8
CI
 10
3.052402
 20
-2.033117
 30
0.0
 42
-0.082828
  0
SEQEND
  8
CI
  0
POLYLINE
  8
CI
 66
     1
 10
0.0
 20
0.0
 30
0.0
  0
VERTEX
  8
CI
 10
3.027402
 20
-2.219149
 30
0.0
 42
-0.068404
 70
     2
 50
54.73561
  0
VERTEX
  8
CI
 10
3.005474
 20
-2.170244
 30
0.0
 42
-0.071352
  0
VERTEX
  8
CI
 10
2.99482
 20
-2.095966
 30
0.0
 42
-0.071352
  0
VERTEX
  8
CI
 10
3.005474
 20
-2.021687
 30
0.0
 42
-0.068404
  0
VERTEX
  8
CI
 10
3.027402
 20
-1.972783
 30
0.0
 42
-0.106756
 70
     2
 50
125.26439
  0
SEQEND
  8
CI
  0
LINE
  8
HID
 10
3.410267
 20
-2.405966
 30
0.0
 11
3.410267
 21
-2.655966
 31
0.0
  0
LINE
  8
OBJ
 10
3.931392
 20
-2.405966
 30
0.0
 11
3.931392
 21
-3.655966
 31
0.0
  0
LINE
  8
HID
 10
3.347767
 20
-2.655966
 30
0.0
 11
3.347767
 21
-3.405966
 31
0.0
  0
LINE
  8
HID
 10
3.339142
 20
-3.655966
 30
0.0
 11
3.339142
 21
-3.405966
 31
0.0
  0
LINE
  8
HID
 10
3.410267
 20
-3.405966
 30
0.0
 11
3.410267
 21
-3.655966
 31
0.0
  0
LINE
  8
CI
 10
3.805392
 20
-1.655966
 30
0.0
 11
3.805392
 21
-1.715966
 31
0.0
  0
LINE
  8
3
 10
3.875392
 20
-1.715966
 30
0.0
 11
3.875392
 21
-2.405966
 31
0.0
  0
LINE
  8
CI
 10
3.026642
 20
-1.155966
 30
0.0
 11
3.464142
 21
-1.155966
 31
0.0
  0
LINE
  8
CI
 10
2.995392
 20
-1.187216
 30
0.0
 11
3.495392
 21
-1.187216
 31
0.0
  0
LINE
  8
CI
 10
3.026642
 20
-1.155966
 30
0.0
 11
2.995392
 21
-1.187216
 31
0.0
  0
LINE
  8
CI
 10
3.464142
 20
-1.155966
 30
0.0
 11
3.495392
 21
-1.187216
 31
0.0
  0
ENDSEC
  0
EOF
