  0
SECTION
  2
HEADER
  9
$ACADVER
  1
AC1009
  9
$INSBASE
 10
0.0
 20
0.0
 30
0.0
  9
$EXTMIN
 10
-10.092449
 20
-5.84283
 30
0.0
  9
$EXTMAX
 10
18.547577
 20
11.966179
 30
0.0
  9
$LIMMIN
 10
0.0
 20
0.0
  9
$LIMMAX
 10
12.0
 20
9.0
  9
$ORTHOMODE
 70
     1
  9
$REGENMODE
 70
     1
  9
$FILLMODE
 70
     1
  9
$QTEXTMODE
 70
     0
  9
$MIRRTEXT
 70
     1
  9
$DRAGMODE
 70
     2
  9
$LTSCALE
 40
0.5
  9
$OSMODE
 70
    32
  9
$ATTMODE
 70
     1
  9
$TEXTSIZE
 40
0.2
  9
$TRACEWID
 40
0.05
  9
$TEXTSTYLE
  7
STANDARD
  9
$CLAYER
  8
0
  9
$CELTYPE
  6
BYLAYER
  9
$CECOLOR
 62
   256
  9
$DIMSCALE
 40
1.0
  9
$DIMASZ
 40
0.18
  9
$DIMEXO
 40
0.0625
  9
$DIMDLI
 40
0.375
  9
$DIMRND
 40
0.0
  9
$DIMDLE
 40
0.0
  9
$DIMEXE
 40
0.07
  9
$DIMTP
 40
0.0
  9
$DIMTM
 40
0.0
  9
$DIMTXT
 40
0.18
  9
$DIMCEN
 40
-0.09
  9
$DIMTSZ
 40
0.0
  9
$DIMTOL
 70
     0
  9
$DIMLIM
 70
     0
  9
$DIMTIH
 70
     0
  9
$DIMTOH
 70
     0
  9
$DIMSE1
 70
     0
  9
$DIMSE2
 70
     0
  9
$DIMTAD
 70
     0
  9
$DIMZIN
 70
     0
  9
$DIMBLK
  1

  9
$DIMASO
 70
     1
  9
$DIMSHO
 70
     1
  9
$DIMPOST
  1

  9
$DIMAPOST
  1

  9
$DIMALT
 70
     0
  9
$DIMALTD
 70
     2
  9
$DIMALTF
 40
25.4
  9
$DIMLFAC
 40
1.0
  9
$DIMTOFL
 70
     0
  9
$DIMTVP
 40
0.0
  9
$DIMTIX
 70
     0
  9
$DIMSOXD
 70
     0
  9
$DIMSAH
 70
     0
  9
$DIMBLK1
  1

  9
$DIMBLK2
  1

  9
$DIMSTYLE
  2
*UNNAMED
  9
$DIMCLRD
 70
     0
  9
$DIMCLRE
 70
     0
  9
$DIMCLRT
 70
     0
  9
$DIMTFAC
 40
1.0
  9
$DIMGAP
 40
0.09
  9
$LUNITS
 70
     2
  9
$LUPREC
 70
     3
  9
$SKETCHINC
 40
0.1
  9
$FILLETRAD
 40
0.0
  9
$AUNITS
 70
     0
  9
$AUPREC
 70
     0
  9
$MENU
  1
ACAD
  9
$ELEVATION
 40
0.0
  9
$PELEVATION
 40
0.0
  9
$THICKNESS
 40
0.0
  9
$LIMCHECK
 70
     0
  9
$BLIPMODE
 70
     0
  9
$CHAMFERA
 40
0.0
  9
$CHAMFERB
 40
0.0
  9
$SKPOLY
 70
     0
  9
$TDCREATE
 40
2450421.444840509
  9
$TDUPDATE
 40
2450421.444840509
  9
$TDINDWG
 40
0.0000000000
  9
$TDUSRTIMER
 40
0.0000000000
  9
$USRTIMER
 70
     1
  9
$ANGBASE
 50
0.0
  9
$ANGDIR
 70
     0
  9
$PDMODE
 70
     0
  9
$PDSIZE
 40
0.0
  9
$PLINEWID
 40
0.0
  9
$COORDS
 70
     0
  9
$SPLFRAME
 70
     0
  9
$SPLINETYPE
 70
     6
  9
$SPLINESEGS
 70
     8
  9
$ATTDIA
 70
     0
  9
$ATTREQ
 70
     1
  9
$HANDLING
 70
     0
  9
$HANDSEED
  5
0
  9
$SURFTAB1
 70
     6
  9
$SURFTAB2
 70
     6
  9
$SURFTYPE
 70
     6
  9
$SURFU
 70
     6
  9
$SURFV
 70
     6
  9
$UCSNAME
  2

  9
$UCSORG
 10
0.0
 20
0.0
 30
0.0
  9
$UCSXDIR
 10
1.0
 20
0.0
 30
0.0
  9
$UCSYDIR
 10
0.0
 20
1.0
 30
0.0
  9
$PUCSNAME
  2

  9
$PUCSORG
 10
0.0
 20
0.0
 30
0.0
  9
$PUCSXDIR
 10
1.0
 20
0.0
 30
0.0
  9
$PUCSYDIR
 10
0.0
 20
1.0
 30
0.0
  9
$USERI1
 70
     0
  9
$USERI2
 70
     0
  9
$USERI3
 70
     0
  9
$USERI4
 70
     0
  9
$USERI5
 70
     0
  9
$USERR1
 40
0.0
  9
$USERR2
 40
0.0
  9
$USERR3
 40
0.0
  9
$USERR4
 40
0.0
  9
$USERR5
 40
0.0
  9
$WORLDVIEW
 70
     1
  9
$SHADEDGE
 70
     3
  9
$SHADEDIF
 70
    70
  9
$TILEMODE
 70
     1
  9
$MAXACTVP
 70
    16
  9
$PINSBASE
 10
-5.770767
 20
50.0
 30
5.640955
  9
$PLIMCHECK
 70
     0
  9
$PEXTMIN
 10
1.000000E+20
 20
1.000000E+20
 30
1.000000E+20
  9
$PEXTMAX
 10
-1.000000E+20
 20
-1.000000E+20
 30
-1.000000E+20
  9
$PLIMMIN
 10
0.0
 20
0.0
  9
$PLIMMAX
 10
12.0
 20
9.0
  9
$UNITMODE
 70
     0
  9
$VISRETAIN
 70
     0
  9
$PLINEGEN
 70
     0
  9
$PSLTSCALE
 70
     0
  9
$TREEDEPTH
 70
  3020
  9
$DWGCODEPAGE
  3
undefined
  0
ENDSEC
  0
SECTION
  2
TABLES
  0
TABLE
  2
VPORT
 70
     1
  0
VPORT
  2
*ACTIVE
 70
     0
 10
0.0
 20
0.0
 11
1.0
 21
1.0
 12
-2.591967
 22
-0.619018
 13
0.0
 23
0.0
 14
0.125
 24
0.125
 15
0.0
 25
0.0
 16
0.0
 26
0.0
 36
1.0
 17
0.0
 27
0.0
 37
0.0
 40
12.733277
 41
1.382567
 42
50.0
 43
0.0
 44
0.0
 50
0.0
 51
0.0
 71
     0
 72
   100
 73
     1
 74
     0
 75
     0
 76
     0
 77
     0
 78
     0
  0
ENDTAB
  0
TABLE
  2
LTYPE
 70
     4
  0
LTYPE
  2
CONTINUOUS
 70
    64
  3
Solid line
 72
    65
 73
     0
 40
0.0
  0
LTYPE
  2
HIDDEN
 70
    64
  3
__ __ __ __ __ __ __ __ __ __ __ __ __ __ __ __
 72
    65
 73
     2
 40
0.375
 49
0.25
 49
-0.125
  0
LTYPE
  2
CENTER2
 70
    64
  3
___ _ ___ _ ___ _ ___ _ ___ _ ___ _ ___ _ ___ _
 72
    65
 73
     4
 40
1.125
 49
0.75
 49
-0.125
 49
0.125
 49
-0.125
  0
LTYPE
  2
CENTER
 70
    64
  3
____ _ ____ _ ____ _ ____ _ ____ _ ____ _ ____ 
 72
    65
 73
     4
 40
2.0
 49
1.25
 49
-0.25
 49
0.25
 49
-0.25
  0
ENDTAB
  0
TABLE
  2
LAYER
 70
     7
  0
LAYER
  2
0
 70
     0
 62
     7
  6
CONTINUOUS
  0
LAYER
  2
HID
 70
    64
 62
    14
  6
HIDDEN
  0
LAYER
  2
OBJ
 70
    64
 62
     5
  6
CONTINUOUS
  0
LAYER
  2
CENTER
 70
    64
 62
     2
  6
CENTER
  0
LAYER
  2
DIM
 70
    64
 62
    12
  6
CONTINUOUS
  0
LAYER
  2
CI
 70
    64
 62
     8
  6
CONTINUOUS
  0
LAYER
  2
3
 70
    64
 62
     1
  6
CONTINUOUS
  0
ENDTAB
  0
TABLE
  2
STYLE
 70
     1
  0
STYLE
  2
STANDARD
 70
    64
 40
0.0
 41
1.0
 50
0.0
 71
     0
 42
0.2
  3
txt
  4

  0
ENDTAB
  0
TABLE
  2
VIEW
 70
     0
  0
ENDTAB
  0
TABLE
  2
UCS
 70
     0
  0
ENDTAB
  0
TABLE
  2
APPID
 70
     1
  0
APPID
  2
ACAD
 70
    64
  0
ENDTAB
  0
TABLE
  2
DIMSTYLE
 70
     0
  0
ENDTAB
  0
ENDSEC
  0
SECTION
  2
BLOCKS
  0
ENDSEC
  0
SECTION
  2
ENTITIES
  0
LINE
  8
CENTER
  6
CENTER2
 10
-1.765079
 20
-3.150171
 30
0.0
 11
-2.528999
 21
-3.150171
 31
0.0
  0
LINE
  8
HID
 10
-1.928764
 20
-2.940171
 30
0.0
 11
-2.428764
 21
-2.940171
 31
0.0
  0
LINE
  8
HID
 10
-1.928764
 20
-3.360171
 30
0.0
 11
-2.428764
 21
-3.360171
 31
0.0
  0
LINE
  8
HID
 10
-1.928764
 20
-2.900171
 30
0.0
 11
-2.428764
 21
-2.900171
 31
0.0
  0
LINE
  8
HID
 10
-1.928764
 20
-3.400171
 30
0.0
 11
-2.428764
 21
-3.400171
 31
0.0
  0
LINE
  8
HID
 10
-1.928764
 20
3.623845
 30
0.0
 11
-2.428764
 21
3.623845
 31
0.0
  0
LINE
  8
HID
 10
-1.928764
 20
3.663845
 30
0.0
 11
-2.428764
 21
3.663845
 31
0.0
  0
LINE
  8
HID
 10
-1.928764
 20
3.203845
 30
0.0
 11
-2.428764
 21
3.203845
 31
0.0
  0
LINE
  8
HID
 10
-1.928764
 20
3.163845
 30
0.0
 11
-2.428764
 21
3.163845
 31
0.0
  0
TEXT
  8
DIM
 10
-5.588621
 20
-5.84283
 30
0.0
 40
0.38
  1
RD-3 ROTARY DRIVE
  0
LINE
  8
3
 10
-2.428764
 20
-4.085171
 30
0.0
 11
-1.928764
 21
-4.085171
 31
0.0
  0
LINE
  8
3
 10
-2.428764
 20
-2.215171
 30
0.0
 11
-1.928764
 21
-2.215171
 31
0.0
  0
CIRCLE
  8
CI
 10
-2.178764
 20
3.413845
 30
0.0
 40
0.145954
  0
CIRCLE
  8
HID
 10
-2.178764
 20
3.413845
 30
0.0
 40
0.184996
  0
LINE
  8
3
 10
-1.928764
 20
2.663845
 30
0.0
 11
-2.428764
 21
2.663845
 31
0.0
  0
LINE
  8
3
 10
-1.928764
 20
4.163845
 30
0.0
 11
-2.428764
 21
4.163845
 31
0.0
  0
LINE
  8
CENTER
 10
-5.928764
 20
-0.190029
 30
0.0
 11
-5.928764
 21
-4.391059
 31
0.0
  0
LINE
  8
3
 10
-7.428764
 20
-1.150171
 30
0.0
 11
-7.428764
 21
-2.150171
 31
0.0
  0
LINE
  8
3
 10
-4.428764
 20
-1.150171
 30
0.0
 11
-4.428764
 21
-2.150171
 31
0.0
  0
LINE
  8
OBJ
 10
-9.428764
 20
-4.150171
 30
0.0
 11
-2.428764
 21
-4.150171
 31
0.0
  0
LINE
  8
OBJ
 10
-9.428764
 20
-2.150171
 30
0.0
 11
-2.428764
 21
-2.150171
 31
0.0
  0
LINE
  8
HID
 10
-8.123326
 20
-3.900171
 30
0.0
 11
-7.735326
 21
-3.900171
 31
0.0
  0
LINE
  8
HID
 10
-8.123326
 20
-2.400171
 30
0.0
 11
-7.735326
 21
-2.400171
 31
0.0
  0
LINE
  8
3
 10
-9.928764
 20
-2.215171
 30
0.0
 11
-9.928764
 21
-4.085171
 31
0.0
  0
LINE
  8
OBJ
 10
-9.428764
 20
-2.150171
 30
0.0
 11
-9.428764
 21
-4.150171
 31
0.0
  0
LINE
  8
HID
 10
-9.928764
 20
-3.400171
 30
0.0
 11
-9.428764
 21
-3.400171
 31
0.0
  0
LINE
  8
3
 10
-9.428764
 20
-4.085171
 30
0.0
 11
-9.928764
 21
-4.085171
 31
0.0
  0
LINE
  8
HID
 10
-8.429264
 20
-4.150171
 30
0.0
 11
-8.429264
 21
-3.72934
 31
0.0
  0
LINE
  8
HID
 10
-8.178264
 20
-4.150171
 30
0.0
 11
-8.178264
 21
-3.72934
 31
0.0
  0
LINE
  8
CENTER
 10
-8.303764
 20
-4.275171
 30
0.0
 11
-8.303764
 21
-3.530553
 31
0.0
  0
LINE
  8
HID
 10
-8.123326
 20
-3.900171
 30
0.0
 11
-8.123326
 21
-4.150171
 31
0.0
  0
LINE
  8
HID
 10
-8.429264
 20
-3.72934
 30
0.0
 11
-8.178264
 21
-3.72934
 31
0.0
  0
LINE
  8
HID
 10
-8.303764
 20
-3.655553
 30
0.0
 11
-8.178264
 21
-3.72934
 31
0.0
  0
LINE
  8
HID
 10
-8.431782
 20
-3.730821
 30
0.0
 11
-8.303764
 21
-3.655553
 31
0.0
  0
LINE
  8
HID
 10
-9.928764
 20
-2.900171
 30
0.0
 11
-9.428764
 21
-2.900171
 31
0.0
  0
LINE
  8
HID
 10
-9.928764
 20
-3.360171
 30
0.0
 11
-9.428764
 21
-3.360171
 31
0.0
  0
LINE
  8
HID
 10
-9.928764
 20
-2.940171
 30
0.0
 11
-9.428764
 21
-2.940171
 31
0.0
  0
LINE
  8
CENTER
  6
CENTER2
 10
-10.092449
 20
-3.150171
 30
0.0
 11
-9.328529
 21
-3.150171
 31
0.0
  0
LINE
  8
3
 10
-9.428764
 20
-2.215171
 30
0.0
 11
-9.928764
 21
-2.215171
 31
0.0
  0
LINE
  8
HID
 10
-9.826264
 20
-2.210171
 30
0.0
 11
-9.826264
 21
-2.604783
 31
0.0
  0
LINE
  8
HID
 10
-9.866264
 20
-2.210171
 30
0.0
 11
-9.866264
 21
-2.604783
 31
0.0
  0
LINE
  8
CENTER
  6
CENTER2
 10
-9.678764
 20
-2.072248
 30
0.0
 11
-9.678764
 21
-2.677449
 31
0.0
  0
LINE
  8
HID
 10
-9.531264
 20
-2.210171
 30
0.0
 11
-9.531264
 21
-2.604783
 31
0.0
  0
LINE
  8
HID
 10
-9.491264
 20
-2.210171
 30
0.0
 11
-9.491264
 21
-2.604783
 31
0.0
  0
LINE
  8
HID
 10
-8.123326
 20
-2.150171
 30
0.0
 11
-8.123326
 21
-2.400171
 31
0.0
  0
LINE
  8
CENTER
 10
-7.929326
 20
-2.840374
 30
0.0
 11
-7.929326
 21
-3.470171
 31
0.0
  0
LINE
  8
HID
 10
-8.053764
 20
-2.400171
 30
0.0
 11
-8.053764
 21
-3.900171
 31
0.0
  0
LINE
  8
HID
 10
-7.803764
 20
-2.400171
 30
0.0
 11
-7.803764
 21
-3.900171
 31
0.0
  0
LINE
  8
CENTER
 10
-7.929326
 20
-3.840374
 30
0.0
 11
-7.929326
 21
-4.275171
 31
0.0
  0
LINE
  8
HID
 10
-7.735326
 20
-3.900171
 30
0.0
 11
-7.735326
 21
-4.150171
 31
0.0
  0
LINE
  8
CENTER
 10
-7.928764
 20
-3.740171
 30
0.0
 11
-7.928764
 21
-3.560171
 31
0.0
  0
CIRCLE
  8
CI
 10
-7.928764
 20
-3.650171
 30
0.0
 40
0.1005
  0
CIRCLE
  8
HID
 10
-7.928764
 20
-3.650171
 30
0.0
 40
0.125
  0
LINE
  8
CENTER
 10
-8.018764
 20
-3.650171
 30
0.0
 11
-7.838764
 21
-3.650171
 31
0.0
  0
LINE
  8
CENTER
 10
-7.928764
 20
-2.470171
 30
0.0
 11
-7.928764
 21
-2.025171
 31
0.0
  0
LINE
  8
CENTER
 10
-7.928764
 20
-2.740171
 30
0.0
 11
-7.928764
 21
-2.560171
 31
0.0
  0
CIRCLE
  8
CI
 10
-7.928764
 20
-2.650171
 30
0.0
 40
0.1005
  0
CIRCLE
  8
HID
 10
-7.928764
 20
-2.650171
 30
0.0
 40
0.125
  0
LINE
  8
CENTER
 10
-8.018764
 20
-2.650171
 30
0.0
 11
-7.838764
 21
-2.650171
 31
0.0
  0
LINE
  8
HID
 10
-7.735326
 20
-2.150171
 30
0.0
 11
-7.735326
 21
-2.400171
 31
0.0
  0
LINE
  8
CENTER
 10
-3.929326
 20
-2.840374
 30
0.0
 11
-3.929326
 21
-3.470171
 31
0.0
  0
LINE
  8
HID
 10
-4.053764
 20
-2.400171
 30
0.0
 11
-4.053764
 21
-3.900171
 31
0.0
  0
LINE
  8
HID
 10
-3.803764
 20
-2.400171
 30
0.0
 11
-3.803764
 21
-3.900171
 31
0.0
  0
LINE
  8
OBJ
 10
-2.428764
 20
-2.150171
 30
0.0
 11
-2.428764
 21
-4.150171
 31
0.0
  0
LINE
  8
HID
 10
-4.123326
 20
-3.900171
 30
0.0
 11
-3.735326
 21
-3.900171
 31
0.0
  0
LINE
  8
CENTER
 10
-3.929326
 20
-3.840374
 30
0.0
 11
-3.929326
 21
-4.275171
 31
0.0
  0
LINE
  8
HID
 10
-4.123326
 20
-3.900171
 30
0.0
 11
-4.123326
 21
-4.150171
 31
0.0
  0
LINE
  8
CENTER
 10
-3.928764
 20
-3.740171
 30
0.0
 11
-3.928764
 21
-3.560171
 31
0.0
  0
CIRCLE
  8
CI
 10
-3.928764
 20
-3.650171
 30
0.0
 40
0.1005
  0
CIRCLE
  8
HID
 10
-3.928764
 20
-3.650171
 30
0.0
 40
0.125
  0
LINE
  8
CENTER
 10
-4.018764
 20
-3.650171
 30
0.0
 11
-3.838764
 21
-3.650171
 31
0.0
  0
LINE
  8
CENTER
 10
-3.553764
 20
-4.275171
 30
0.0
 11
-3.553764
 21
-3.530553
 31
0.0
  0
LINE
  8
HID
 10
-3.679264
 20
-4.150171
 30
0.0
 11
-3.679264
 21
-3.72934
 31
0.0
  0
LINE
  8
HID
 10
-3.428264
 20
-4.150171
 30
0.0
 11
-3.428264
 21
-3.72934
 31
0.0
  0
LINE
  8
HID
 10
-3.735326
 20
-3.900171
 30
0.0
 11
-3.735326
 21
-4.150171
 31
0.0
  0
LINE
  8
HID
 10
-3.679264
 20
-3.72934
 30
0.0
 11
-3.428264
 21
-3.72934
 31
0.0
  0
LINE
  8
HID
 10
-3.681782
 20
-3.730821
 30
0.0
 11
-3.553764
 21
-3.655553
 31
0.0
  0
LINE
  8
HID
 10
-3.553764
 20
-3.655553
 30
0.0
 11
-3.428264
 21
-3.72934
 31
0.0
  0
LINE
  8
HID
 10
-3.735326
 20
-2.400171
 30
0.0
 11
-4.123326
 21
-2.400171
 31
0.0
  0
LINE
  8
CENTER
 10
-3.928764
 20
-2.470171
 30
0.0
 11
-3.928764
 21
-2.025171
 31
0.0
  0
LINE
  8
CENTER
 10
-3.928764
 20
-2.740171
 30
0.0
 11
-3.928764
 21
-2.560171
 31
0.0
  0
CIRCLE
  8
CI
 10
-3.928764
 20
-2.650171
 30
0.0
 40
0.1005
  0
CIRCLE
  8
HID
 10
-3.928764
 20
-2.650171
 30
0.0
 40
0.125
  0
LINE
  8
CENTER
 10
-4.018764
 20
-2.650171
 30
0.0
 11
-3.838764
 21
-2.650171
 31
0.0
  0
LINE
  8
HID
 10
-4.123326
 20
-2.150171
 30
0.0
 11
-4.123326
 21
-2.400171
 31
0.0
  0
LINE
  8
HID
 10
-2.366264
 20
-2.210171
 30
0.0
 11
-2.366264
 21
-2.604783
 31
0.0
  0
LINE
  8
HID
 10
-2.326264
 20
-2.210171
 30
0.0
 11
-2.326264
 21
-2.604783
 31
0.0
  0
LINE
  8
HID
 10
-3.735326
 20
-2.150171
 30
0.0
 11
-3.735326
 21
-2.400171
 31
0.0
  0
LINE
  8
OBJ
 10
-9.428764
 20
1.413845
 30
0.0
 11
-2.428764
 21
1.413845
 31
0.0
  0
LINE
  8
OBJ
 10
-9.428764
 20
4.163845
 30
0.0
 11
-6.585014
 21
4.163845
 31
0.0
  0
LINE
  8
CENTER
 10
-8.29341
 20
4.190892
 30
0.0
 11
-7.103049
 21
3.000531
 31
0.0
  0
CIRCLE
  8
CI
 10
-7.928764
 20
2.538845
 30
0.0
 40
0.203125
  0
LINE
  8
HID
 10
-8.179947
 20
3.834891
 30
0.0
 11
-7.937409
 21
4.077429
 31
0.0
  0
LINE
  8
HID
 10
-8.135753
 20
3.790697
 30
0.0
 11
-7.893215
 21
4.033235
 31
0.0
  0
LINE
  8
HID
 10
-8.102837
 20
3.779419
 30
0.0
 11
-8.135753
 21
3.790697
 31
0.0
  0
LINE
  8
HID
 10
-8.003736
 20
4.011102
 30
0.0
 11
-8.122176
 21
4.129543
 31
0.0
  0
LINE
  8
HID
 10
-8.279366
 20
4.000637
 30
0.0
 11
-8.103155
 21
4.176848
 31
0.0
  0
LINE
  8
HID
 10
-8.11362
 20
3.901218
 30
0.0
 11
-8.232061
 21
4.019658
 31
0.0
  0
ARC
  8
HID
 10
-8.0572
 20
4.130893
 30
0.0
 40
0.06499
 50
88.809396
 51
181.190604
  0
LINE
  8
OBJ
 10
-9.428764
 20
4.163845
 30
0.0
 11
-9.428764
 21
1.413845
 31
0.0
  0
LINE
  8
HID
 10
-9.866264
 20
4.163845
 30
0.0
 11
-9.866264
 21
3.800426
 31
0.0
  0
LINE
  8
HID
 10
-9.826264
 20
4.163845
 30
0.0
 11
-9.826264
 21
3.800426
 31
0.0
  0
LINE
  8
HID
 10
-9.531264
 20
4.163845
 30
0.0
 11
-9.531264
 21
3.800426
 31
0.0
  0
LINE
  8
HID
 10
-9.491264
 20
4.163845
 30
0.0
 11
-9.491264
 21
3.800426
 31
0.0
  0
LINE
  8
CENTER
 10
-9.678764
 20
4.290922
 30
0.0
 11
-9.678764
 21
3.730543
 31
0.0
  0
LINE
  8
3
 10
-9.928764
 20
4.163845
 30
0.0
 11
-9.928764
 21
2.663845
 31
0.0
  0
LINE
  8
HID
 10
-8.26595
 20
4.075043
 30
0.0
 11
-8.177561
 21
4.163432
 31
0.0
  0
ARC
  8
HID
 10
-8.077464
 20
3.974946
 30
0.0
 40
0.160932
 50
106.130789
 51
163.869211
  0
LINE
  8
HID
 10
-8.263739
 20
4.101117
 30
0.0
 11
-8.203635
 21
4.161221
 31
0.0
  0
LINE
  8
HID
 10
-9.928764
 20
3.163845
 30
0.0
 11
-9.428764
 21
3.163845
 31
0.0
  0
LINE
  8
HID
 10
-9.928764
 20
3.203845
 30
0.0
 11
-9.428764
 21
3.203845
 31
0.0
  0
LINE
  8
HID
 10
-9.928764
 20
3.663845
 30
0.0
 11
-9.428764
 21
3.663845
 31
0.0
  0
LINE
  8
HID
 10
-9.928764
 20
3.623845
 30
0.0
 11
-9.428764
 21
3.623845
 31
0.0
  0
CIRCLE
  8
CI
 10
-9.678764
 20
3.413845
 30
0.0
 40
0.145954
  0
CIRCLE
  8
HID
 10
-9.678764
 20
3.413845
 30
0.0
 40
0.184996
  0
LINE
  8
3
 10
-9.928764
 20
2.663845
 30
0.0
 11
-9.428764
 21
2.663845
 31
0.0
  0
LINE
  8
CENTER
 10
-9.678764
 20
3.323845
 30
0.0
 11
-9.678764
 21
3.503845
 31
0.0
  0
LINE
  8
CENTER
 10
-9.768764
 20
3.413845
 30
0.0
 11
-9.588764
 21
3.413845
 31
0.0
  0
CIRCLE
  8
HID
 10
-8.303764
 20
2.538845
 30
0.0
 40
0.1255
  0
LINE
  8
CENTER
 10
-8.303764
 20
2.448845
 30
0.0
 11
-8.303764
 21
2.628845
 31
0.0
  0
LINE
  8
CENTER
 10
-8.393764
 20
2.538845
 30
0.0
 11
-8.213764
 21
2.538845
 31
0.0
  0
LINE
  8
HID
 10
-8.135753
 20
3.790697
 30
0.0
 11
-8.298387
 21
3.953332
 31
0.0
  0
ARC
  8
HID
 10
-8.233411
 20
3.954682
 30
0.0
 40
0.06499
 50
88.809396
 51
181.190604
  0
ARC
  8
HID
 10
-8.249597
 20
4.086975
 30
0.0
 40
0.02
 50
135.0
 51
225.0
  0
LINE
  8
HID
 10
-8.235455
 20
4.044549
 30
0.0
 11
-8.263739
 21
4.072833
 31
0.0
  0
LINE
  8
3
 10
-9.928764
 20
4.163845
 30
0.0
 11
-9.428764
 21
4.163845
 31
0.0
  0
ARC
  8
HID
 10
-8.189493
 20
4.147079
 30
0.0
 40
0.02
 50
45.0
 51
135.0
  0
LINE
  8
HID
 10
-8.147067
 20
4.132937
 30
0.0
 11
-8.175351
 21
4.161221
 31
0.0
  0
CIRCLE
  8
CI
 10
-5.928764
 20
2.538845
 30
0.0
 40
0.72
  0
CIRCLE
  8
3
 10
-5.928764
 20
2.538845
 30
0.0
 40
0.78
  0
LINE
  8
3
 10
-7.428764
 20
2.788845
 30
0.0
 11
-7.428764
 21
1.538845
 31
0.0
  0
CIRCLE
  8
CI
 10
-7.178764
 20
2.413845
 30
0.0
 40
0.176179
  0
CIRCLE
  8
3
 10
-7.178764
 20
2.413845
 30
0.0
 40
0.203125
  0
LINE
  8
3
 10
-4.428764
 20
2.788845
 30
0.0
 11
-4.428764
 21
1.538845
 31
0.0
  0
CIRCLE
  8
CI
 10
-4.678764
 20
2.413845
 30
0.0
 40
0.173927
  0
CIRCLE
  8
3
 10
-4.678764
 20
2.413845
 30
0.0
 40
0.203125
  0
LINE
  8
OBJ
 10
-2.428764
 20
4.163845
 30
0.0
 11
-2.428764
 21
1.413845
 31
0.0
  0
LINE
  8
3
 10
-7.428764
 20
-1.150171
 30
0.0
 11
-4.428764
 21
-1.150171
 31
0.0
  0
LINE
  8
CI
 10
-6.648764
 20
-1.090171
 30
0.0
 11
-5.208764
 21
-1.090171
 31
0.0
  0
LINE
  8
3
 10
-7.428764
 20
1.538845
 30
0.0
 11
-4.428764
 21
1.538845
 31
0.0
  0
LINE
  8
HID
 10
-5.803764
 20
-0.340171
 30
0.0
 11
-5.803764
 21
-1.090171
 31
0.0
  0
LINE
  8
HID
 10
-6.053764
 20
-0.340171
 30
0.0
 11
-6.053764
 21
-1.090171
 31
0.0
  0
LINE
  8
HID
 10
-5.828764
 20
-0.340171
 30
0.0
 11
-5.828764
 21
-1.090171
 31
0.0
  0
LINE
  8
HID
 10
-6.028764
 20
-0.340171
 30
0.0
 11
-6.028764
 21
-1.090171
 31
0.0
  0
LINE
  8
CI
 10
-5.678764
 20
-0.371421
 30
0.0
 11
-5.678764
 21
-1.090171
 31
0.0
  0
LINE
  8
CI
 10
-6.178764
 20
-0.371421
 30
0.0
 11
-6.178764
 21
-1.090171
 31
0.0
  0
LINE
  8
CI
 10
-6.648764
 20
-1.090171
 30
0.0
 11
-6.648764
 21
-1.150171
 31
0.0
  0
LINE
  8
CI
 10
-6.178764
 20
-0.371421
 30
0.0
 11
-5.678764
 21
-0.371421
 31
0.0
  0
LINE
  8
CI
 10
-6.147514
 20
-0.340171
 30
0.0
 11
-5.710014
 21
-0.340171
 31
0.0
  0
LINE
  8
CI
 10
-6.147514
 20
-0.340171
 30
0.0
 11
-6.178764
 21
-0.371421
 31
0.0
  0
LINE
  8
CI
 10
-5.710014
 20
-0.340171
 30
0.0
 11
-5.678764
 21
-0.371421
 31
0.0
  0
LINE
  8
CENTER
 10
-7.929326
 20
2.035345
 30
0.0
 11
-7.929326
 21
1.288845
 31
0.0
  0
LINE
  8
HID
 10
-8.053764
 20
1.413845
 30
0.0
 11
-8.053764
 21
1.835078
 31
0.0
  0
LINE
  8
HID
 10
-7.803764
 20
1.413845
 30
0.0
 11
-7.803764
 21
1.838627
 31
0.0
  0
LINE
  8
HID
 10
-7.828264
 20
1.413845
 30
0.0
 11
-7.828264
 21
1.838627
 31
0.0
  0
LINE
  8
HID
 10
-8.029264
 20
1.413845
 30
0.0
 11
-8.029264
 21
1.835078
 31
0.0
  0
LINE
  8
HID
 10
-8.053764
 20
1.835078
 30
0.0
 11
-7.803764
 21
1.835078
 31
0.0
  0
LINE
  8
HID
 10
-8.029264
 20
1.835078
 30
0.0
 11
-7.925745
 21
1.895941
 31
0.0
  0
LINE
  8
HID
 10
-7.929326
 20
1.898046
 30
0.0
 11
-7.828264
 21
1.838627
 31
0.0
  0
CIRCLE
  8
CI
 10
-7.178764
 20
2.038845
 30
0.0
 40
0.125
  0
LINE
  8
CI
 10
-5.208764
 20
-1.090171
 30
0.0
 11
-5.208764
 21
-1.150171
 31
0.0
  0
LINE
  8
CENTER
 10
-3.929326
 20
2.035345
 30
0.0
 11
-3.929326
 21
1.168845
 31
0.0
  0
CIRCLE
  8
CI
 10
-4.678764
 20
2.038845
 30
0.0
 40
0.125
  0
LINE
  8
HID
 10
-4.055607
 20
1.413845
 30
0.0
 11
-4.055607
 21
1.835078
 31
0.0
  0
LINE
  8
HID
 10
-3.830107
 20
1.413845
 30
0.0
 11
-3.830107
 21
1.835078
 31
0.0
  0
LINE
  8
HID
 10
-3.805607
 20
1.413845
 30
0.0
 11
-3.805607
 21
1.835078
 31
0.0
  0
LINE
  8
HID
 10
-4.031107
 20
1.413845
 30
0.0
 11
-4.031107
 21
1.835078
 31
0.0
  0
LINE
  8
HID
 10
-4.055607
 20
1.835078
 30
0.0
 11
-3.805607
 21
1.835078
 31
0.0
  0
LINE
  8
HID
 10
-4.031107
 20
1.835078
 30
0.0
 11
-3.929326
 21
1.894919
 31
0.0
  0
LINE
  8
HID
 10
-3.930607
 20
1.894166
 30
0.0
 11
-3.830107
 21
1.835078
 31
0.0
  0
LINE
  8
OBJ
 10
-5.272514
 20
4.163845
 30
0.0
 11
-2.428764
 21
4.163845
 31
0.0
  0
LINE
  8
3
 10
-6.678764
 20
3.538845
 30
0.0
 11
-5.178764
 21
3.538845
 31
0.0
  0
ARC
  8
CI
 10
-5.272464
 20
3.541189
 30
0.0
 40
0.107656
 50
54.510637
 51
125.489363
  0
ARC
  8
CI
 10
-5.272464
 20
3.646501
 30
0.0
 40
0.107656
 50
234.510637
 51
305.489363
  0
LINE
  8
HID
 10
-7.893215
 20
4.033235
 30
0.0
 11
-8.05585
 21
4.195869
 31
0.0
  0
LINE
  8
CENTER
 10
-6.428764
 20
5.141639
 30
0.0
 11
-6.428764
 21
3.458214
 31
0.0
  0
LINE
  8
CI
 10
-6.585014
 20
3.648845
 30
0.0
 11
-6.585014
 21
4.497178
 31
0.0
  0
LINE
  8
CI
 10
-6.272514
 20
3.648845
 30
0.0
 11
-6.272514
 21
4.497178
 31
0.0
  0
LINE
  8
CI
 10
-5.585014
 20
3.648845
 30
0.0
 11
-5.585014
 21
4.497178
 31
0.0
  0
LINE
  8
CENTER
 10
-5.428764
 20
5.141639
 30
0.0
 11
-5.428764
 21
3.458214
 31
0.0
  0
LINE
  8
CI
 10
-5.272514
 20
3.648845
 30
0.0
 11
-5.272514
 21
4.497178
 31
0.0
  0
LINE
  8
3
 10
-7.428764
 20
2.788845
 30
0.0
 11
-6.678764
 21
3.538845
 31
0.0
  0
LINE
  8
HID
 10
-7.34833
 20
3.024842
 30
0.0
 11
-7.948193
 21
3.624704
 31
0.0
  0
LINE
  8
HID
 10
-7.127289
 20
3.245883
 30
0.0
 11
-7.348401
 21
3.024771
 31
0.0
  0
POLYLINE
  8
HID
 66
     1
 10
0.0
 20
0.0
 30
0.0
  0
VERTEX
  8
HID
 10
-7.34833
 20
3.024842
 30
0.0
 50
90.0
  0
VERTEX
  8
HID
 10
-7.12736
 20
3.245813
 30
0.0
 50
90.0
  0
SEQEND
  8
HID
  0
LINE
  8
HID
 10
-7.358905
 20
3.117387
 30
0.0
 11
-7.219905
 21
3.256387
 31
0.0
  0
LINE
  8
HID
 10
-7.45145
 20
3.127961
 30
0.0
 11
-7.230479
 21
3.348932
 31
0.0
  0
ARC
  8
HID
 10
-7.125667
 20
3.244191
 30
0.0
 40
0.107656
 50
279.510637
 51
350.489363
  0
ARC
  8
HID
 10
-7.075238
 20
2.97272
 30
0.0
 40
0.229961
 50
110.927314
 51
159.072686
  0
LINE
  8
HID
 10
-7.107879
 20
3.138014
 30
0.0
 11
-7.157376
 21
3.187512
 31
0.0
  0
ARC
  8
HID
 10
-7.272241
 20
2.948682
 30
0.0
 40
0.107656
 50
99.510637
 51
170.489363
  0
LINE
  8
CENTER
 10
-7.928764
 20
2.448845
 30
0.0
 11
-7.928764
 21
2.628845
 31
0.0
  0
CIRCLE
  8
CI
 10
-7.928764
 20
2.538845
 30
0.0
 40
0.125
  0
LINE
  8
CENTER
 10
-8.018764
 20
2.538845
 30
0.0
 11
-7.838764
 21
2.538845
 31
0.0
  0
POLYLINE
  8
CI
 66
     1
 10
0.0
 20
0.0
 30
0.0
 70
     1
  0
VERTEX
  8
CI
 10
-7.241264
 20
2.522098
 30
0.0
  0
VERTEX
  8
CI
 10
-7.303764
 20
2.413845
 30
0.0
  0
VERTEX
  8
CI
 10
-7.241264
 20
2.305592
 30
0.0
  0
VERTEX
  8
CI
 10
-7.116264
 20
2.305592
 30
0.0
  0
VERTEX
  8
CI
 10
-7.053764
 20
2.413845
 30
0.0
  0
VERTEX
  8
CI
 10
-7.116264
 20
2.522098
 30
0.0
  0
SEQEND
  8
CI
  0
ARC
  8
HID
 10
-7.346708
 20
3.023149
 30
0.0
 40
0.107656
 50
279.510637
 51
350.489363
  0
LINE
  8
HID
 10
-7.32892
 20
2.916973
 30
0.0
 11
-7.378418
 21
2.96647
 31
0.0
  0
LINE
  8
HID
 10
-7.049578
 20
3.168031
 30
0.0
 11
-7.270549
 21
2.94706
 31
0.0
  0
LINE
  8
HID
 10
-7.270549
 20
2.94706
 30
0.0
 11
-7.049578
 21
3.168031
 31
0.0
  0
ARC
  8
HID
 10
-7.32267
 20
3.220152
 30
0.0
 40
0.229961
 50
290.927314
 51
339.072686
  0
LINE
  8
HID
 10
-7.240532
 20
3.005361
 30
0.0
 11
-7.29003
 21
3.054858
 31
0.0
  0
LINE
  8
HID
 10
-7.12736
 20
3.245813
 30
0.0
 11
-7.727222
 21
3.845675
 31
0.0
  0
LINE
  8
HID
 10
-7.55457
 20
3.231081
 30
0.0
 11
-7.333599
 21
3.452052
 31
0.0
  0
LINE
  8
HID
 10
-7.462024
 20
3.220507
 30
0.0
 11
-7.323025
 21
3.359506
 31
0.0
  0
LINE
  8
HID
 10
-7.760809
 20
3.437321
 30
0.0
 11
-7.539839
 21
3.658291
 31
0.0
  0
LINE
  8
HID
 10
-7.771384
 20
3.529866
 30
0.0
 11
-7.632384
 21
3.668866
 31
0.0
  0
LINE
  8
HID
 10
-7.863929
 20
3.54044
 30
0.0
 11
-7.642958
 21
3.761411
 31
0.0
  0
LINE
  8
HID
 10
-7.958976
 20
3.613921
 30
0.0
 11
-8.091559
 21
3.746503
 31
0.0
  0
LINE
  8
HID
 10
-7.958976
 20
3.613921
 30
0.0
 11
-7.716438
 21
3.856458
 31
0.0
  0
LINE
  8
HID
 10
-7.874503
 20
3.632986
 30
0.0
 11
-7.735504
 21
3.771985
 31
0.0
  0
LINE
  8
HID
 10
-7.565144
 20
3.323627
 30
0.0
 11
-7.426145
 21
3.462626
 31
0.0
  0
LINE
  8
HID
 10
-7.65769
 20
3.334201
 30
0.0
 11
-7.436719
 21
3.555172
 31
0.0
  0
LINE
  8
HID
 10
-7.668264
 20
3.426746
 30
0.0
 11
-7.529264
 21
3.565746
 31
0.0
  0
LINE
  8
HID
 10
-7.716438
 20
3.856458
 30
0.0
 11
-7.849021
 21
3.989041
 31
0.0
  0
LINE
  8
HID
 10
-8.102837
 20
3.779419
 30
0.0
 11
-7.881937
 21
4.000319
 31
0.0
  0
LINE
  8
HID
 10
-8.091559
 20
3.746503
 30
0.0
 11
-7.849021
 21
3.989041
 31
0.0
  0
LINE
  8
HID
 10
-8.091559
 20
3.746503
 30
0.0
 11
-8.102837
 21
3.779419
 31
0.0
  0
LINE
  8
HID
 10
-7.849021
 20
3.989041
 30
0.0
 11
-7.881937
 21
4.000319
 31
0.0
  0
LINE
  8
HID
 10
-7.881937
 20
4.000319
 30
0.0
 11
-7.893215
 21
4.033235
 31
0.0
  0
LINE
  8
HID
 10
-7.01949
 20
3.226402
 30
0.0
 11
-7.068988
 21
3.2759
 31
0.0
  0
ARC
  8
HID
 10
-7.0512
 20
3.169723
 30
0.0
 40
0.107656
 50
99.510637
 51
170.489363
  0
CIRCLE
  8
CI
 10
-5.928764
 20
3.038845
 30
0.0
 40
0.1565
  0
CIRCLE
  8
CI
 10
-5.928764
 20
2.538845
 30
0.0
 40
0.25
  0
CIRCLE
  8
CI
 10
-5.928764
 20
2.538845
 30
0.0
 40
0.21875
  0
CIRCLE
  8
CI
 10
-5.928764
 20
2.538845
 30
0.0
 40
0.1
  0
CIRCLE
  8
HID
 10
-5.928764
 20
2.538845
 30
0.0
 40
0.125
  0
LINE
  8
CENTER
 10
-6.018764
 20
2.538845
 30
0.0
 11
-5.838764
 21
2.538845
 31
0.0
  0
LINE
  8
CENTER
 10
-6.018764
 20
3.038845
 30
0.0
 11
-5.838764
 21
3.038845
 31
0.0
  0
LINE
  8
CENTER
 10
-5.928764
 20
2.448845
 30
0.0
 11
-5.928764
 21
2.628845
 31
0.0
  0
LINE
  8
CENTER
 10
-5.928764
 20
2.948845
 30
0.0
 11
-5.928764
 21
3.128845
 31
0.0
  0
ARC
  8
CI
 10
-6.272464
 20
3.541189
 30
0.0
 40
0.107656
 50
54.510637
 51
125.489363
  0
ARC
  8
CI
 10
-6.585064
 20
3.541189
 30
0.0
 40
0.107656
 50
54.510637
 51
125.489363
  0
ARC
  8
CI
 10
-6.428764
 20
3.418884
 30
0.0
 40
0.229961
 50
65.927314
 51
114.072686
  0
ARC
  8
CI
 10
-6.272464
 20
3.646501
 30
0.0
 40
0.107656
 50
234.510637
 51
305.489363
  0
LINE
  8
CI
 10
-6.272514
 20
3.538845
 30
0.0
 11
-6.585014
 21
3.538845
 31
0.0
  0
LINE
  8
CI
 10
-6.585014
 20
3.538845
 30
0.0
 11
-6.272514
 21
3.538845
 31
0.0
  0
ARC
  8
CI
 10
-6.428764
 20
3.768806
 30
0.0
 40
0.229961
 50
245.927314
 51
294.072686
  0
ARC
  8
CI
 10
-6.585064
 20
3.646501
 30
0.0
 40
0.107656
 50
234.510637
 51
305.489363
  0
LINE
  8
CI
 10
-6.647564
 20
3.558845
 30
0.0
 11
-6.647564
 21
3.628845
 31
0.0
  0
LINE
  8
CI
 10
-6.522564
 20
3.558845
 30
0.0
 11
-6.522564
 21
3.628845
 31
0.0
  0
LINE
  8
CI
 10
-6.334964
 20
3.558845
 30
0.0
 11
-6.334964
 21
3.628845
 31
0.0
  0
LINE
  8
CI
 10
-6.209964
 20
3.558845
 30
0.0
 11
-6.209964
 21
3.628845
 31
0.0
  0
LINE
  8
CI
 10
-6.272414
 20
3.648845
 30
0.0
 11
-6.585114
 21
3.648845
 31
0.0
  0
POLYLINE
  8
CI
 66
     1
 10
0.0
 20
0.0
 30
0.0
  0
VERTEX
  8
CI
 10
-6.585014
 20
3.648845
 30
0.0
 50
90.0
  0
VERTEX
  8
CI
 10
-6.272514
 20
3.648845
 30
0.0
 50
90.0
  0
SEQEND
  8
CI
  0
LINE
  8
CI
 10
-6.585014
 20
3.794678
 30
0.0
 11
-6.272514
 21
3.794678
 31
0.0
  0
LINE
  8
CI
 10
-6.585014
 20
3.940511
 30
0.0
 11
-6.272514
 21
3.940511
 31
0.0
  0
LINE
  8
CI
 10
-6.585014
 20
4.086345
 30
0.0
 11
-6.272514
 21
4.086345
 31
0.0
  0
LINE
  8
CI
 10
-6.527051
 20
3.721761
 30
0.0
 11
-6.330476
 21
3.721761
 31
0.0
  0
LINE
  8
CI
 10
-6.527051
 20
3.867595
 30
0.0
 11
-6.330476
 21
3.867595
 31
0.0
  0
LINE
  8
CI
 10
-6.527051
 20
4.013428
 30
0.0
 11
-6.330476
 21
4.013428
 31
0.0
  0
ARC
  8
CI
 10
-5.428764
 20
3.418884
 30
0.0
 40
0.229961
 50
65.927314
 51
114.072686
  0
ARC
  8
CI
 10
-5.585064
 20
3.541189
 30
0.0
 40
0.107656
 50
54.510637
 51
125.489363
  0
LINE
  8
CI
 10
-5.272514
 20
3.538845
 30
0.0
 11
-5.585014
 21
3.538845
 31
0.0
  0
LINE
  8
CI
 10
-5.585014
 20
3.538845
 30
0.0
 11
-5.272514
 21
3.538845
 31
0.0
  0
ARC
  8
CI
 10
-5.585064
 20
3.646501
 30
0.0
 40
0.107656
 50
234.510637
 51
305.489363
  0
LINE
  8
CI
 10
-5.647564
 20
3.558845
 30
0.0
 11
-5.647564
 21
3.628845
 31
0.0
  0
ARC
  8
CI
 10
-5.428764
 20
3.768806
 30
0.0
 40
0.229961
 50
245.927314
 51
294.072686
  0
LINE
  8
CI
 10
-5.522564
 20
3.558845
 30
0.0
 11
-5.522564
 21
3.628845
 31
0.0
  0
LINE
  8
CI
 10
-5.334964
 20
3.558845
 30
0.0
 11
-5.334964
 21
3.628845
 31
0.0
  0
LINE
  8
CI
 10
-5.272414
 20
3.648845
 30
0.0
 11
-5.585114
 21
3.648845
 31
0.0
  0
POLYLINE
  8
CI
 66
     1
 10
0.0
 20
0.0
 30
0.0
  0
VERTEX
  8
CI
 10
-5.585014
 20
3.648845
 30
0.0
 50
90.0
  0
VERTEX
  8
CI
 10
-5.272514
 20
3.648845
 30
0.0
 50
90.0
  0
SEQEND
  8
CI
  0
LINE
  8
CI
 10
-5.585014
 20
4.086345
 30
0.0
 11
-5.272514
 21
4.086345
 31
0.0
  0
LINE
  8
CI
 10
-5.585014
 20
3.940511
 30
0.0
 11
-5.272514
 21
3.940511
 31
0.0
  0
LINE
  8
CI
 10
-5.585014
 20
3.794678
 30
0.0
 11
-5.272514
 21
3.794678
 31
0.0
  0
LINE
  8
CI
 10
-5.527051
 20
3.867595
 30
0.0
 11
-5.330476
 21
3.867595
 31
0.0
  0
LINE
  8
CI
 10
-5.527051
 20
3.721761
 30
0.0
 11
-5.330476
 21
3.721761
 31
0.0
  0
LINE
  8
CI
 10
-5.527051
 20
4.013428
 30
0.0
 11
-5.330476
 21
4.013428
 31
0.0
  0
ARC
  8
CI
 10
-6.471264
 20
5.037178
 30
0.0
 40
0.02
 50
90.0
 51
180.0
  0
ARC
  8
CI
 10
-6.386264
 20
5.037178
 30
0.0
 40
0.02
 50
0.0
 51
90.0
  0
ARC
  8
CI
 10
-5.386264
 20
5.037178
 30
0.0
 40
0.02
 50
0.0
 51
90.0
  0
ARC
  8
CI
 10
-5.471264
 20
5.037178
 30
0.0
 40
0.02
 50
90.0
 51
180.0
  0
LINE
  8
OBJ
 10
-6.272514
 20
4.163845
 30
0.0
 11
-5.585014
 21
4.163845
 31
0.0
  0
LINE
  8
CI
 10
-6.600264
 20
4.497178
 30
0.0
 11
-6.600264
 21
4.684678
 31
0.0
  0
LINE
  8
CI
 10
-6.257264
 20
4.497178
 30
0.0
 11
-6.257264
 21
4.684678
 31
0.0
  0
LINE
  8
CI
 10
-6.585014
 20
4.232178
 30
0.0
 11
-6.272514
 21
4.232178
 31
0.0
  0
LINE
  8
CI
 10
-6.600264
 20
4.497178
 30
0.0
 11
-6.257264
 21
4.497178
 31
0.0
  0
LINE
  8
CI
 10
-6.585014
 20
4.378011
 30
0.0
 11
-6.272514
 21
4.378011
 31
0.0
  0
LINE
  8
CI
 10
-6.527051
 20
4.159261
 30
0.0
 11
-6.330476
 21
4.159261
 31
0.0
  0
LINE
  8
CI
 10
-6.527051
 20
4.305095
 30
0.0
 11
-6.330476
 21
4.305095
 31
0.0
  0
LINE
  8
CI
 10
-6.527051
 20
4.450928
 30
0.0
 11
-6.330476
 21
4.450928
 31
0.0
  0
LINE
  8
CI
 10
-6.600264
 20
4.747178
 30
0.0
 11
-6.257264
 21
4.747178
 31
0.0
  0
LINE
  8
CI
 10
-6.600264
 20
4.684678
 30
0.0
 11
-6.257264
 21
4.684678
 31
0.0
  0
LINE
  8
CI
 10
-6.584964
 20
4.715928
 30
0.0
 11
-6.272564
 21
4.715928
 31
0.0
  0
LINE
  8
CI
 10
-6.600264
 20
4.809678
 30
0.0
 11
-6.257264
 21
4.809678
 31
0.0
  0
ARC
  8
CI
 10
-6.304164
 20
4.932188
 30
0.0
 40
0.06499
 50
43.809396
 51
136.190604
  0
LINE
  8
CI
 10
-6.600264
 20
4.747178
 30
0.0
 11
-6.600264
 21
4.977178
 31
0.0
  0
LINE
  8
CI
 10
-6.506464
 20
4.809678
 30
0.0
 11
-6.506464
 21
4.977178
 31
0.0
  0
LINE
  8
CI
 10
-6.351064
 20
4.809678
 30
0.0
 11
-6.351064
 21
4.977178
 31
0.0
  0
LINE
  8
CI
 10
-6.600264
 20
4.684678
 30
0.0
 11
-6.584964
 21
4.715928
 31
0.0
  0
LINE
  8
CI
 10
-6.584964
 20
4.715928
 30
0.0
 11
-6.600264
 21
4.747178
 31
0.0
  0
ARC
  8
CI
 10
-6.428764
 20
4.836246
 30
0.0
 40
0.160932
 50
61.130789
 51
118.869211
  0
LINE
  8
CI
 10
-6.553364
 20
4.997178
 30
0.0
 11
-6.304164
 21
4.997178
 31
0.0
  0
LINE
  8
CI
 10
-6.491264
 20
5.040304
 30
0.0
 11
-6.366264
 21
5.040304
 31
0.0
  0
ARC
  8
CI
 10
-6.553364
 20
4.932188
 30
0.0
 40
0.06499
 50
43.809396
 51
136.190604
  0
LINE
  8
CI
 10
-6.491264
 20
4.997178
 30
0.0
 11
-6.491264
 21
5.037178
 31
0.0
  0
LINE
  8
CI
 10
-6.366264
 20
4.997178
 30
0.0
 11
-6.366264
 21
5.037178
 31
0.0
  0
LINE
  8
CI
 10
-6.257264
 20
4.747178
 30
0.0
 11
-6.257264
 21
4.977178
 31
0.0
  0
LINE
  8
CI
 10
-6.272564
 20
4.715928
 30
0.0
 11
-6.257264
 21
4.747178
 31
0.0
  0
LINE
  8
CI
 10
-6.257264
 20
4.684678
 30
0.0
 11
-6.272564
 21
4.715928
 31
0.0
  0
LINE
  8
CI
 10
-5.600264
 20
4.497178
 30
0.0
 11
-5.600264
 21
4.684678
 31
0.0
  0
LINE
  8
CI
 10
-5.257264
 20
4.497178
 30
0.0
 11
-5.257264
 21
4.684678
 31
0.0
  0
LINE
  8
CI
 10
-5.600264
 20
4.497178
 30
0.0
 11
-5.257264
 21
4.497178
 31
0.0
  0
LINE
  8
CI
 10
-5.585014
 20
4.378011
 30
0.0
 11
-5.272514
 21
4.378011
 31
0.0
  0
LINE
  8
CI
 10
-5.585014
 20
4.232178
 30
0.0
 11
-5.272514
 21
4.232178
 31
0.0
  0
LINE
  8
CI
 10
-5.527051
 20
4.305095
 30
0.0
 11
-5.330476
 21
4.305095
 31
0.0
  0
LINE
  8
CI
 10
-5.527051
 20
4.159261
 30
0.0
 11
-5.330476
 21
4.159261
 31
0.0
  0
LINE
  8
CI
 10
-5.527051
 20
4.450928
 30
0.0
 11
-5.330476
 21
4.450928
 31
0.0
  0
LINE
  8
CI
 10
-5.600264
 20
4.809678
 30
0.0
 11
-5.257264
 21
4.809678
 31
0.0
  0
LINE
  8
CI
 10
-5.584964
 20
4.715928
 30
0.0
 11
-5.272564
 21
4.715928
 31
0.0
  0
LINE
  8
CI
 10
-5.600264
 20
4.747178
 30
0.0
 11
-5.257264
 21
4.747178
 31
0.0
  0
LINE
  8
CI
 10
-5.600264
 20
4.684678
 30
0.0
 11
-5.257264
 21
4.684678
 31
0.0
  0
ARC
  8
CI
 10
-5.553364
 20
4.932188
 30
0.0
 40
0.06499
 50
43.809396
 51
136.190604
  0
LINE
  8
CI
 10
-5.600264
 20
4.747178
 30
0.0
 11
-5.600264
 21
4.977178
 31
0.0
  0
LINE
  8
CI
 10
-5.600264
 20
4.684678
 30
0.0
 11
-5.584964
 21
4.715928
 31
0.0
  0
LINE
  8
CI
 10
-5.584964
 20
4.715928
 30
0.0
 11
-5.600264
 21
4.747178
 31
0.0
  0
LINE
  8
CI
 10
-5.506464
 20
4.809678
 30
0.0
 11
-5.506464
 21
4.977178
 31
0.0
  0
LINE
  8
CI
 10
-5.257264
 20
4.747178
 30
0.0
 11
-5.257264
 21
4.977178
 31
0.0
  0
LINE
  8
CI
 10
-5.351064
 20
4.809678
 30
0.0
 11
-5.351064
 21
4.977178
 31
0.0
  0
LINE
  8
CI
 10
-5.272564
 20
4.715928
 30
0.0
 11
-5.257264
 21
4.747178
 31
0.0
  0
LINE
  8
CI
 10
-5.257264
 20
4.684678
 30
0.0
 11
-5.272564
 21
4.715928
 31
0.0
  0
ARC
  8
CI
 10
-5.428764
 20
4.836246
 30
0.0
 40
0.160932
 50
61.130789
 51
118.869211
  0
LINE
  8
CI
 10
-5.553364
 20
4.997178
 30
0.0
 11
-5.304164
 21
4.997178
 31
0.0
  0
LINE
  8
CI
 10
-5.491264
 20
5.040304
 30
0.0
 11
-5.366264
 21
5.040304
 31
0.0
  0
LINE
  8
CI
 10
-5.491264
 20
4.997178
 30
0.0
 11
-5.491264
 21
5.037178
 31
0.0
  0
LINE
  8
CI
 10
-5.366264
 20
4.997178
 30
0.0
 11
-5.366264
 21
5.037178
 31
0.0
  0
ARC
  8
CI
 10
-5.304164
 20
4.932188
 30
0.0
 40
0.06499
 50
43.809396
 51
136.190604
  0
LINE
  8
CI
 10
-6.471264
 20
5.057178
 30
0.0
 11
-6.386264
 21
5.057178
 31
0.0
  0
LINE
  8
CI
 10
-5.471264
 20
5.057178
 30
0.0
 11
-5.386264
 21
5.057178
 31
0.0
  0
LINE
  8
HID
 10
-2.366264
 20
4.163845
 30
0.0
 11
-2.366264
 21
3.800426
 31
0.0
  0
LINE
  8
HID
 10
-2.326264
 20
4.163845
 30
0.0
 11
-2.326264
 21
3.800426
 31
0.0
  0
LINE
  8
CENTER
 10
-3.564118
 20
4.190892
 30
0.0
 11
-4.754479
 21
3.000531
 31
0.0
  0
LINE
  8
HID
 10
-3.578162
 20
4.000637
 30
0.0
 11
-3.754373
 21
4.176848
 31
0.0
  0
ARC
  8
HID
 10
-3.780063
 20
3.974946
 30
0.0
 40
0.160932
 50
16.130789
 51
73.869211
  0
LINE
  8
HID
 10
-3.964313
 20
4.033235
 30
0.0
 11
-3.801678
 21
4.195869
 31
0.0
  0
LINE
  8
HID
 10
-3.853792
 20
4.011102
 30
0.0
 11
-3.735351
 21
4.129543
 31
0.0
  0
LINE
  8
HID
 10
-3.591578
 20
4.075043
 30
0.0
 11
-3.679966
 21
4.163432
 31
0.0
  0
LINE
  8
HID
 10
-3.593789
 20
4.101117
 30
0.0
 11
-3.653893
 21
4.161221
 31
0.0
  0
CIRCLE
  8
CI
 10
-3.928764
 20
2.544227
 30
0.0
 40
0.203125
  0
LINE
  8
HID
 10
-3.765969
 20
3.746503
 30
0.0
 11
-4.008507
 21
3.989041
 31
0.0
  0
LINE
  8
HID
 10
-3.721775
 20
3.790697
 30
0.0
 11
-3.964313
 21
4.033235
 31
0.0
  0
LINE
  8
HID
 10
-3.754691
 20
3.779419
 30
0.0
 11
-3.975591
 21
4.000319
 31
0.0
  0
LINE
  8
HID
 10
-3.677581
 20
3.834891
 30
0.0
 11
-3.920118
 21
4.077429
 31
0.0
  0
LINE
  8
HID
 10
-3.898552
 20
3.613921
 30
0.0
 11
-3.765969
 21
3.746503
 31
0.0
  0
LINE
  8
3
 10
-4.428764
 20
2.788845
 30
0.0
 11
-5.178764
 21
3.538845
 31
0.0
  0
LINE
  8
HID
 10
-4.509197
 20
3.024842
 30
0.0
 11
-3.909335
 21
3.624704
 31
0.0
  0
ARC
  8
HID
 10
-4.731861
 20
3.244191
 30
0.0
 40
0.107656
 50
189.510637
 51
260.489363
  0
LINE
  8
HID
 10
-4.406078
 20
3.127961
 30
0.0
 11
-4.627048
 21
3.348932
 31
0.0
  0
LINE
  8
HID
 10
-4.498623
 20
3.117387
 30
0.0
 11
-4.637623
 21
3.256387
 31
0.0
  0
POLYLINE
  8
HID
 66
     1
 10
0.0
 20
0.0
 30
0.0
  0
VERTEX
  8
HID
 10
-4.509197
 20
3.024842
 30
0.0
  0
VERTEX
  8
HID
 10
-4.730168
 20
3.245813
 30
0.0
  0
SEQEND
  8
HID
  0
LINE
  8
HID
 10
-4.749649
 20
3.138014
 30
0.0
 11
-4.700151
 21
3.187512
 31
0.0
  0
ARC
  8
HID
 10
-4.78229
 20
2.97272
 30
0.0
 40
0.229961
 50
20.927314
 51
69.072686
  0
LINE
  8
HID
 10
-4.730239
 20
3.245883
 30
0.0
 11
-4.509127
 21
3.024771
 31
0.0
  0
LINE
  8
HID
 10
-4.528607
 20
2.916973
 30
0.0
 11
-4.47911
 21
2.96647
 31
0.0
  0
ARC
  8
HID
 10
-4.585286
 20
2.948682
 30
0.0
 40
0.107656
 50
9.510637
 51
80.489363
  0
POLYLINE
  8
CI
 66
     1
 10
0.0
 20
0.0
 30
0.0
 70
     1
  0
VERTEX
  8
CI
 10
-4.741264
 20
2.522098
 30
0.0
  0
VERTEX
  8
CI
 10
-4.803764
 20
2.413845
 30
0.0
  0
VERTEX
  8
CI
 10
-4.741264
 20
2.305592
 30
0.0
  0
VERTEX
  8
CI
 10
-4.616264
 20
2.305592
 30
0.0
  0
VERTEX
  8
CI
 10
-4.553764
 20
2.413845
 30
0.0
  0
VERTEX
  8
CI
 10
-4.616264
 20
2.522098
 30
0.0
  0
SEQEND
  8
CI
  0
ARC
  8
HID
 10
-4.510819
 20
3.023149
 30
0.0
 40
0.107656
 50
189.510637
 51
260.489363
  0
LINE
  8
HID
 10
-4.586979
 20
2.94706
 30
0.0
 11
-4.80795
 21
3.168031
 31
0.0
  0
LINE
  8
HID
 10
-4.80795
 20
3.168031
 30
0.0
 11
-4.586979
 21
2.94706
 31
0.0
  0
ARC
  8
HID
 10
-4.534857
 20
3.220152
 30
0.0
 40
0.229961
 50
200.927314
 51
249.072686
  0
LINE
  8
HID
 10
-4.616996
 20
3.005361
 30
0.0
 11
-4.567498
 21
3.054858
 31
0.0
  0
LINE
  8
CENTER
 10
-3.928764
 20
2.448845
 30
0.0
 11
-3.928764
 21
2.628845
 31
0.0
  0
CIRCLE
  8
CI
 10
-3.928764
 20
2.538845
 30
0.0
 40
0.125
  0
LINE
  8
CENTER
 10
-4.018764
 20
2.538845
 30
0.0
 11
-3.838764
 21
2.538845
 31
0.0
  0
LINE
  8
HID
 10
-4.302958
 20
3.231081
 30
0.0
 11
-4.523929
 21
3.452052
 31
0.0
  0
LINE
  8
HID
 10
-4.730168
 20
3.245813
 30
0.0
 11
-4.130306
 21
3.845675
 31
0.0
  0
LINE
  8
HID
 10
-4.395503
 20
3.220507
 30
0.0
 11
-4.534503
 21
3.359506
 31
0.0
  0
LINE
  8
CI
 10
-5.209964
 20
3.558845
 30
0.0
 11
-5.209964
 21
3.628845
 31
0.0
  0
ARC
  8
HID
 10
-4.806328
 20
3.169723
 30
0.0
 40
0.107656
 50
9.510637
 51
80.489363
  0
LINE
  8
HID
 10
-4.838037
 20
3.226402
 30
0.0
 11
-4.78854
 21
3.2759
 31
0.0
  0
LINE
  8
HID
 10
-3.983024
 20
3.632986
 30
0.0
 11
-4.122024
 21
3.771985
 31
0.0
  0
LINE
  8
HID
 10
-3.993599
 20
3.54044
 30
0.0
 11
-4.214569
 21
3.761411
 31
0.0
  0
LINE
  8
HID
 10
-3.898552
 20
3.613921
 30
0.0
 11
-4.141089
 21
3.856458
 31
0.0
  0
LINE
  8
HID
 10
-4.086144
 20
3.529866
 30
0.0
 11
-4.225144
 21
3.668866
 31
0.0
  0
LINE
  8
HID
 10
-4.096718
 20
3.437321
 30
0.0
 11
-4.317689
 21
3.658291
 31
0.0
  0
LINE
  8
HID
 10
-4.199838
 20
3.334201
 30
0.0
 11
-4.420809
 21
3.555172
 31
0.0
  0
LINE
  8
HID
 10
-4.292384
 20
3.323627
 30
0.0
 11
-4.431383
 21
3.462626
 31
0.0
  0
LINE
  8
HID
 10
-4.189264
 20
3.426746
 30
0.0
 11
-4.328263
 21
3.565746
 31
0.0
  0
LINE
  8
HID
 10
-4.141089
 20
3.856458
 30
0.0
 11
-4.008507
 21
3.989041
 31
0.0
  0
LINE
  8
HID
 10
-4.008507
 20
3.989041
 30
0.0
 11
-3.975591
 21
4.000319
 31
0.0
  0
LINE
  8
HID
 10
-3.975591
 20
4.000319
 30
0.0
 11
-3.964313
 21
4.033235
 31
0.0
  0
LINE
  8
CENTER
 10
-3.553764
 20
2.448845
 30
0.0
 11
-3.553764
 21
2.628845
 31
0.0
  0
CIRCLE
  8
HID
 10
-3.553764
 20
2.538845
 30
0.0
 40
0.1255
  0
LINE
  8
CENTER
 10
-3.643764
 20
2.538845
 30
0.0
 11
-3.463764
 21
2.538845
 31
0.0
  0
LINE
  8
HID
 10
-3.721775
 20
3.790697
 30
0.0
 11
-3.55914
 21
3.953332
 31
0.0
  0
LINE
  8
HID
 10
-3.754691
 20
3.779419
 30
0.0
 11
-3.721775
 21
3.790697
 31
0.0
  0
LINE
  8
HID
 10
-3.765969
 20
3.746503
 30
0.0
 11
-3.754691
 21
3.779419
 31
0.0
  0
ARC
  8
HID
 10
-3.624117
 20
3.954682
 30
0.0
 40
0.06499
 50
358.809396
 51
91.190604
  0
LINE
  8
HID
 10
-3.743907
 20
3.901218
 30
0.0
 11
-3.625467
 21
4.019658
 31
0.0
  0
ARC
  8
HID
 10
-3.607931
 20
4.086975
 30
0.0
 40
0.02
 50
315.0
 51
45.0
  0
LINE
  8
HID
 10
-3.622073
 20
4.044549
 30
0.0
 11
-3.593789
 21
4.072833
 31
0.0
  0
ARC
  8
HID
 10
-3.800328
 20
4.130893
 30
0.0
 40
0.06499
 50
358.809396
 51
91.190604
  0
LINE
  8
HID
 10
-3.710461
 20
4.132937
 30
0.0
 11
-3.682177
 21
4.161221
 31
0.0
  0
ARC
  8
HID
 10
-3.668035
 20
4.147079
 30
0.0
 40
0.02
 50
45.0
 51
135.0
  0
LINE
  8
CENTER
 10
2.92617
 20
-0.090171
 30
0.0
 11
2.92617
 21
-4.391747
 31
0.0
  0
LINE
  8
3
 10
3.17617
 20
-1.150171
 30
0.0
 11
3.17617
 21
-2.150171
 31
0.0
  0
LINE
  8
3
 10
1.92617
 20
-1.150171
 30
0.0
 11
1.92617
 21
-2.150171
 31
0.0
  0
LINE
  8
3
 10
3.92617
 20
-2.150171
 30
0.0
 11
3.92617
 21
-1.150171
 31
0.0
  0
POLYLINE
  8
CI
 66
     1
 10
0.0
 20
0.0
 30
0.0
 70
     1
  0
VERTEX
  8
CI
 10
3.461005
 20
-1.777671
 30
0.0
 42
0.133256
 50
180.0
  0
VERTEX
  8
CI
 10
3.509159
 20
-1.764606
 30
0.0
 42
0.106756
 50
180.0
  0
VERTEX
  8
CI
 10
3.554755
 20
-1.722754
 30
0.0
 42
0.082828
 70
     2
 50
54.73561
  0
VERTEX
  8
CI
 10
3.582933
 20
-1.66445
 30
0.0
 42
0.071352
 50
54.73561
  0
VERTEX
  8
CI
 10
3.593587
 20
-1.590171
 30
0.0
 42
0.071352
 50
180.0
  0
VERTEX
  8
CI
 10
3.582933
 20
-1.515892
 30
0.0
 42
0.082828
 50
180.0
  0
VERTEX
  8
CI
 10
3.554755
 20
-1.457589
 30
0.0
 42
0.106756
 70
     2
 50
125.26439
  0
VERTEX
  8
CI
 10
3.509159
 20
-1.415737
 30
0.0
 42
0.133256
 50
125.26439
  0
VERTEX
  8
CI
 10
3.461005
 20
-1.402671
 30
0.0
 42
0.133256
 50
180.0
  0
VERTEX
  8
CI
 10
3.41285
 20
-1.415737
 30
0.0
 42
0.106756
 50
180.0
  0
VERTEX
  8
CI
 10
3.367255
 20
-1.457589
 30
0.0
 42
0.082828
 70
     2
 50
234.73561
  0
VERTEX
  8
CI
 10
3.339076
 20
-1.515892
 30
0.0
 42
0.071352
 50
234.73561
  0
VERTEX
  8
CI
 10
3.328422
 20
-1.590171
 30
0.0
 42
0.071352
 50
180.0
  0
VERTEX
  8
CI
 10
3.339076
 20
-1.66445
 30
0.0
 42
0.082828
 50
180.0
  0
VERTEX
  8
CI
 10
3.367255
 20
-1.722754
 30
0.0
 42
0.106756
 70
     2
 50
305.26439
  0
VERTEX
  8
CI
 10
3.41285
 20
-1.764606
 30
0.0
 42
0.133256
 50
305.26439
  0
SEQEND
  8
CI
  0
POLYLINE
  8
CI
 66
     1
 10
0.0
 20
0.0
 30
0.0
  0
VERTEX
  8
CI
 10
3.411005
 20
-1.763506
 30
0.0
 42
0.103052
 50
180.0
  0
VERTEX
  8
CI
 10
3.454755
 20
-1.722754
 30
0.0
 42
0.082828
 70
     2
 50
54.73561
  0
VERTEX
  8
CI
 10
3.482933
 20
-1.66445
 30
0.0
 42
0.071352
 50
54.73561
  0
VERTEX
  8
CI
 10
3.493587
 20
-1.590171
 30
0.0
 42
0.071352
 50
180.0
  0
VERTEX
  8
CI
 10
3.482933
 20
-1.515892
 30
0.0
 42
0.082828
 50
180.0
  0
VERTEX
  8
CI
 10
3.454755
 20
-1.457589
 30
0.0
 42
0.103052
 70
     2
 50
125.26439
  0
VERTEX
  8
CI
 10
3.411005
 20
-1.416836
 30
0.0
 42
0.133256
 50
125.26439
  0
SEQEND
  8
CI
  0
POLYLINE
  8
CI
 66
     1
 10
0.0
 20
0.0
 30
0.0
  0
VERTEX
  8
CI
 10
3.361005
 20
-1.713354
 30
0.0
 42
0.068404
 70
     2
 50
54.73561
  0
VERTEX
  8
CI
 10
3.382933
 20
-1.66445
 30
0.0
 42
0.071352
 50
54.73561
  0
VERTEX
  8
CI
 10
3.393587
 20
-1.590171
 30
0.0
 42
0.071352
 50
180.0
  0
VERTEX
  8
CI
 10
3.382933
 20
-1.515892
 30
0.0
 42
0.068404
 50
180.0
  0
VERTEX
  8
CI
 10
3.361005
 20
-1.466988
 30
0.0
 42
0.106756
 70
     2
 50
125.26439
  0
SEQEND
  8
CI
  0
LINE
  8
CI
 10
3.92617
 20
-1.746421
 30
0.0
 11
3.92617
 21
-1.433921
 31
0.0
  0
LINE
  8
CI
 10
4.03617
 20
-1.746521
 30
0.0
 11
4.03617
 21
-1.433821
 31
0.0
  0
LINE
  8
CI
 10
3.92617
 20
-1.433921
 30
0.0
 11
3.92617
 21
-1.746421
 31
0.0
  0
POLYLINE
  8
CI
 66
     1
 10
0.0
 20
0.0
 30
0.0
  0
VERTEX
  8
CI
 10
4.03617
 20
-1.433921
 30
0.0
  0
VERTEX
  8
CI
 10
4.03617
 20
-1.746421
 30
0.0
  0
SEQEND
  8
CI
  0
LINE
  8
CI
 10
4.182003
 20
-1.433921
 30
0.0
 11
4.182003
 21
-1.746421
 31
0.0
  0
LINE
  8
CI
 10
4.327836
 20
-1.433921
 30
0.0
 11
4.327836
 21
-1.746421
 31
0.0
  0
LINE
  8
CI
 10
4.47367
 20
-1.433921
 30
0.0
 11
4.47367
 21
-1.746421
 31
0.0
  0
LINE
  8
CI
 10
4.619503
 20
-1.433921
 30
0.0
 11
4.619503
 21
-1.746421
 31
0.0
  0
LINE
  8
CI
 10
4.109086
 20
-1.491884
 30
0.0
 11
4.109086
 21
-1.688459
 31
0.0
  0
LINE
  8
CI
 10
4.25492
 20
-1.491884
 30
0.0
 11
4.25492
 21
-1.688459
 31
0.0
  0
ARC
  8
CI
 10
4.033826
 20
-1.433871
 30
0.0
 40
0.107656
 50
144.510637
 51
215.489363
  0
ARC
  8
CI
 10
3.928513
 20
-1.433871
 30
0.0
 40
0.107656
 50
324.510637
 51
35.489363
  0
LINE
  8
CI
 10
4.400753
 20
-1.491884
 30
0.0
 11
4.400753
 21
-1.688459
 31
0.0
  0
LINE
  8
CI
 10
4.546586
 20
-1.491884
 30
0.0
 11
4.546586
 21
-1.688459
 31
0.0
  0
LINE
  8
CI
 10
5.197003
 20
-1.418671
 30
0.0
 11
5.197003
 21
-1.761671
 31
0.0
  0
LINE
  8
CI
 10
5.103253
 20
-1.433971
 30
0.0
 11
5.103253
 21
-1.746371
 31
0.0
  0
LINE
  8
CI
 10
5.134503
 20
-1.418671
 30
0.0
 11
5.134503
 21
-1.761671
 31
0.0
  0
LINE
  8
CI
 10
5.072003
 20
-1.418671
 30
0.0
 11
5.072003
 21
-1.761671
 31
0.0
  0
LINE
  8
CI
 10
4.884503
 20
-1.418671
 30
0.0
 11
4.884503
 21
-1.761671
 31
0.0
  0
POLYLINE
  8
CI
 66
     1
 10
0.0
 20
0.0
 30
0.0
  0
VERTEX
  8
CI
 10
4.765336
 20
-1.433921
 30
0.0
  0
VERTEX
  8
CI
 10
4.765336
 20
-1.746421
 30
0.0
  0
SEQEND
  8
CI
  0
LINE
  8
CI
 10
4.69242
 20
-1.491884
 30
0.0
 11
4.69242
 21
-1.688459
 31
0.0
  0
LINE
  8
CI
 10
4.838253
 20
-1.491884
 30
0.0
 11
4.838253
 21
-1.688459
 31
0.0
  0
ARC
  8
CI
 10
5.319513
 20
-1.465571
 30
0.0
 40
0.06499
 50
313.809396
 51
46.190604
  0
LINE
  8
CI
 10
5.384503
 20
-1.465571
 30
0.0
 11
5.384503
 21
-1.714771
 31
0.0
  0
LINE
  8
3
 10
3.05117
 20
-4.085171
 30
0.0
 11
4.55117
 21
-4.085171
 31
0.0
  0
LINE
  8
3
 10
3.05117
 20
-2.215171
 30
0.0
 11
4.55117
 21
-2.215171
 31
0.0
  0
CIRCLE
  8
3
 10
3.30117
 20
-2.413296
 30
0.0
 40
0.181428
  0
CIRCLE
  8
3
 10
3.30117
 20
-3.887046
 30
0.0
 40
0.181428
  0
LINE
  8
OBJ
 10
1.80117
 20
-2.150171
 30
0.0
 11
4.55117
 21
-2.150171
 31
0.0
  0
LINE
  8
OBJ
 10
1.80117
 20
-4.150171
 30
0.0
 11
4.55117
 21
-4.150171
 31
0.0
  0
LINE
  8
3
 10
-1.928764
 20
-2.215171
 30
0.0
 11
-1.928764
 21
-4.085171
 31
0.0
  0
LINE
  8
CENTER
  6
CENTER2
 10
-2.178764
 20
-2.072248
 30
0.0
 11
-2.178764
 21
-2.677449
 31
0.0
  0
LINE
  8
HID
 10
-1.991264
 20
-2.210171
 30
0.0
 11
-1.991264
 21
-2.604783
 31
0.0
  0
LINE
  8
HID
 10
-2.031264
 20
-2.210171
 30
0.0
 11
-2.031264
 21
-2.604783
 31
0.0
  0
LINE
  8
3
 10
3.05117
 20
-4.085171
 30
0.0
 11
3.05117
 21
-2.215171
 31
0.0
  0
LINE
  8
OBJ
 10
1.80117
 20
-4.150171
 30
0.0
 11
1.80117
 21
-2.150171
 31
0.0
  0
LINE
  8
HID
 10
3.05117
 20
-3.900171
 30
0.0
 11
3.05117
 21
-2.400171
 31
0.0
  0
LINE
  8
HID
 10
2.80117
 20
-3.900171
 30
0.0
 11
2.80117
 21
-2.400171
 31
0.0
  0
LINE
  8
CENTER
 10
1.554334
 20
-3.650171
 30
0.0
 11
2.484148
 21
-3.650171
 31
0.0
  0
LINE
  8
HID
 10
1.798817
 20
-3.775171
 30
0.0
 11
2.229186
 21
-3.775171
 31
0.0
  0
LINE
  8
HID
 10
1.798817
 20
-3.735171
 30
0.0
 11
2.229186
 21
-3.735171
 31
0.0
  0
LINE
  8
HID
 10
1.798817
 20
-3.525171
 30
0.0
 11
2.229186
 21
-3.525171
 31
0.0
  0
LINE
  8
HID
 10
1.798817
 20
-3.565171
 30
0.0
 11
2.229186
 21
-3.565171
 31
0.0
  0
LINE
  8
HID
 10
3.129295
 20
-3.900171
 30
0.0
 11
2.723045
 21
-3.900171
 31
0.0
  0
LINE
  8
HID
 10
2.723045
 20
-4.150171
 30
0.0
 11
2.723045
 21
-3.900171
 31
0.0
  0
LINE
  8
HID
 10
2.229186
 20
-3.525171
 30
0.0
 11
2.229186
 21
-3.775171
 31
0.0
  0
LINE
  8
HID
 10
2.279161
 20
-3.650171
 30
0.0
 11
2.229186
 21
-3.565171
 31
0.0
  0
LINE
  8
HID
 10
2.229186
 20
-3.735171
 30
0.0
 11
2.279161
 21
-3.650171
 31
0.0
  0
CIRCLE
  8
CI
 10
3.30117
 20
-3.887046
 30
0.0
 40
0.171875
  0
POLYLINE
  8
CI
 66
     1
 10
0.0
 20
0.0
 30
0.0
 70
     1
  0
VERTEX
  8
CI
 10
3.254295
 20
-3.805856
 30
0.0
  0
VERTEX
  8
CI
 10
3.20742
 20
-3.887046
 30
0.0
  0
VERTEX
  8
CI
 10
3.254295
 20
-3.968236
 30
0.0
  0
VERTEX
  8
CI
 10
3.348045
 20
-3.968236
 30
0.0
  0
VERTEX
  8
CI
 10
3.39492
 20
-3.887046
 30
0.0
  0
VERTEX
  8
CI
 10
3.348045
 20
-3.805856
 30
0.0
  0
SEQEND
  8
CI
  0
LINE
  8
HID
 10
3.129295
 20
-4.150171
 30
0.0
 11
3.129295
 21
-3.900171
 31
0.0
  0
LINE
  8
CENTER
 10
1.554334
 20
-2.650171
 30
0.0
 11
2.484148
 21
-2.650171
 31
0.0
  0
LINE
  8
HID
 10
1.798817
 20
-2.735171
 30
0.0
 11
2.229186
 21
-2.735171
 31
0.0
  0
LINE
  8
HID
 10
1.798817
 20
-2.775171
 30
0.0
 11
2.229186
 21
-2.775171
 31
0.0
  0
LINE
  8
HID
 10
1.798817
 20
-2.565171
 30
0.0
 11
2.229186
 21
-2.565171
 31
0.0
  0
LINE
  8
HID
 10
1.798817
 20
-2.525171
 30
0.0
 11
2.229186
 21
-2.525171
 31
0.0
  0
CIRCLE
  8
CI
 10
3.30117
 20
-2.413296
 30
0.0
 40
0.171875
  0
POLYLINE
  8
CI
 66
     1
 10
0.0
 20
0.0
 30
0.0
 70
     1
  0
VERTEX
  8
CI
 10
3.254295
 20
-2.332106
 30
0.0
  0
VERTEX
  8
CI
 10
3.20742
 20
-2.413296
 30
0.0
  0
VERTEX
  8
CI
 10
3.254295
 20
-2.494486
 30
0.0
  0
VERTEX
  8
CI
 10
3.348045
 20
-2.494486
 30
0.0
  0
VERTEX
  8
CI
 10
3.39492
 20
-2.413296
 30
0.0
  0
VERTEX
  8
CI
 10
3.348045
 20
-2.332106
 30
0.0
  0
SEQEND
  8
CI
  0
LINE
  8
HID
 10
2.279161
 20
-2.650171
 30
0.0
 11
2.229186
 21
-2.735171
 31
0.0
  0
LINE
  8
HID
 10
2.229186
 20
-2.775171
 30
0.0
 11
2.229186
 21
-2.525171
 31
0.0
  0
LINE
  8
HID
 10
2.229186
 20
-2.565171
 30
0.0
 11
2.279161
 21
-2.650171
 31
0.0
  0
LINE
  8
HID
 10
2.723045
 20
-2.400171
 30
0.0
 11
3.129295
 21
-2.400171
 31
0.0
  0
LINE
  8
HID
 10
2.723045
 20
-2.400171
 30
0.0
 11
2.723045
 21
-2.150171
 31
0.0
  0
LINE
  8
HID
 10
3.129295
 20
-2.400171
 30
0.0
 11
3.129295
 21
-2.150171
 31
0.0
  0
POLYLINE
  8
CI
 66
     1
 10
0.0
 20
0.0
 30
0.0
  0
VERTEX
  8
CI
 10
3.336005
 20
-1.65302
 30
0.0
 42
0.060105
 50
54.73561
  0
VERTEX
  8
CI
 10
3.343587
 20
-1.590171
 30
0.0
 42
0.060105
 50
180.0
  0
VERTEX
  8
CI
 10
3.336005
 20
-1.527322
 30
0.0
 42
0.082828
 50
180.0
  0
SEQEND
  8
CI
  0
POLYLINE
  8
CI
 66
     1
 10
0.0
 20
0.0
 30
0.0
  0
VERTEX
  8
CI
 10
3.439277
 20
-1.637702
 30
0.0
 42
0.045243
 50
54.73561
  0
VERTEX
  8
CI
 10
3.443587
 20
-1.590171
 30
0.0
 42
0.047281
 50
180.0
  0
VERTEX
  8
CI
 10
3.438882
 20
-1.540528
 30
0.0
 42
0.012861
 50
180.0
  0
SEQEND
  8
CI
  0
LINE
  8
3
 10
4.55117
 20
-4.085171
 30
0.0
 11
4.55117
 21
-2.215171
 31
0.0
  0
LINE
  8
OBJ
 10
4.55117
 20
-4.150171
 30
0.0
 11
4.55117
 21
-2.150171
 31
0.0
  0
CIRCLE
  8
CI
 10
3.80117
 20
-3.150171
 30
0.0
 40
0.25
  0
CIRCLE
  8
HID
 10
3.80117
 20
-3.150171
 30
0.0
 40
0.285963
  0
CIRCLE
  8
CI
 10
4.30117
 20
-3.887046
 30
0.0
 40
0.171875
  0
CIRCLE
  8
3
 10
4.30117
 20
-3.887046
 30
0.0
 40
0.181428
  0
POLYLINE
  8
CI
 66
     1
 10
0.0
 20
0.0
 30
0.0
 70
     1
  0
VERTEX
  8
CI
 10
4.254295
 20
-3.805856
 30
0.0
  0
VERTEX
  8
CI
 10
4.20742
 20
-3.887046
 30
0.0
  0
VERTEX
  8
CI
 10
4.254295
 20
-3.968236
 30
0.0
  0
VERTEX
  8
CI
 10
4.348045
 20
-3.968236
 30
0.0
  0
VERTEX
  8
CI
 10
4.39492
 20
-3.887046
 30
0.0
  0
VERTEX
  8
CI
 10
4.348045
 20
-3.805856
 30
0.0
  0
SEQEND
  8
CI
  0
LINE
  8
CENTER
 10
5.524014
 20
-1.590171
 30
0.0
 11
3.8555
 21
-1.590171
 31
0.0
  0
LINE
  8
CI
 10
4.884503
 20
-1.761671
 30
0.0
 11
5.072003
 21
-1.761671
 31
0.0
  0
LINE
  8
HID
 10
3.61867
 20
-2.210171
 30
0.0
 11
3.61867
 21
-2.646364
 31
0.0
  0
LINE
  8
HID
 10
3.95367
 20
-2.210171
 30
0.0
 11
3.95367
 21
-2.646364
 31
0.0
  0
LINE
  8
HID
 10
3.65867
 20
-2.210171
 30
0.0
 11
3.65867
 21
-2.646364
 31
0.0
  0
LINE
  8
HID
 10
3.99367
 20
-2.210171
 30
0.0
 11
3.99367
 21
-2.646364
 31
0.0
  0
CIRCLE
  8
CI
 10
4.30117
 20
-2.413296
 30
0.0
 40
0.171875
  0
POLYLINE
  8
CI
 66
     1
 10
0.0
 20
0.0
 30
0.0
 70
     1
  0
VERTEX
  8
CI
 10
4.254295
 20
-2.332106
 30
0.0
  0
VERTEX
  8
CI
 10
4.20742
 20
-2.413296
 30
0.0
  0
VERTEX
  8
CI
 10
4.254295
 20
-2.494486
 30
0.0
  0
VERTEX
  8
CI
 10
4.348045
 20
-2.494486
 30
0.0
  0
VERTEX
  8
CI
 10
4.39492
 20
-2.413296
 30
0.0
  0
VERTEX
  8
CI
 10
4.348045
 20
-2.332106
 30
0.0
  0
SEQEND
  8
CI
  0
CIRCLE
  8
3
 10
4.30117
 20
-2.413296
 30
0.0
 40
0.181428
  0
LINE
  8
CENTER
 10
3.71117
 20
-3.150171
 30
0.0
 11
3.89117
 21
-3.150171
 31
0.0
  0
LINE
  8
CENTER
 10
3.80117
 20
-3.240171
 30
0.0
 11
3.80117
 21
-3.060171
 31
0.0
  0
LINE
  8
HID
 10
4.55117
 20
-3.337671
 30
0.0
 11
4.223619
 21
-3.337671
 31
0.0
  0
LINE
  8
HID
 10
4.55117
 20
-3.297671
 30
0.0
 11
4.223619
 21
-3.297671
 31
0.0
  0
LINE
  8
HID
 10
4.55117
 20
-3.002671
 30
0.0
 11
4.223619
 21
-3.002671
 31
0.0
  0
LINE
  8
HID
 10
4.55117
 20
-2.962671
 30
0.0
 11
4.223619
 21
-2.962671
 31
0.0
  0
LINE
  8
CI
 10
4.03617
 20
-1.746421
 30
0.0
 11
4.884503
 21
-1.746421
 31
0.0
  0
POLYLINE
  8
CI
 66
     1
 10
0.0
 20
0.0
 30
0.0
  0
VERTEX
  8
CI
 10
3.539277
 20
-1.637702
 30
0.0
 42
0.045243
 50
54.73561
  0
VERTEX
  8
CI
 10
3.543587
 20
-1.590171
 30
0.0
 42
0.047281
 50
180.0
  0
VERTEX
  8
CI
 10
3.538882
 20
-1.540528
 30
0.0
 42
0.012861
 50
180.0
  0
SEQEND
  8
CI
  0
ARC
  8
CI
 10
4.033826
 20
-1.746471
 30
0.0
 40
0.107656
 50
144.510637
 51
215.489363
  0
ARC
  8
CI
 10
3.928513
 20
-1.746471
 30
0.0
 40
0.107656
 50
324.510637
 51
35.489363
  0
LINE
  8
CI
 10
3.94617
 20
-1.808971
 30
0.0
 11
4.01617
 21
-1.808971
 31
0.0
  0
ARC
  8
CI
 10
3.806209
 20
-1.590171
 30
0.0
 40
0.229961
 50
335.927314
 51
24.072686
  0
ARC
  8
CI
 10
4.156131
 20
-1.590171
 30
0.0
 40
0.229961
 50
155.927314
 51
204.072686
  0
LINE
  8
CI
 10
3.94617
 20
-1.683971
 30
0.0
 11
4.01617
 21
-1.683971
 31
0.0
  0
LINE
  8
CI
 10
3.94617
 20
-1.496371
 30
0.0
 11
4.01617
 21
-1.496371
 31
0.0
  0
LINE
  8
CI
 10
5.197003
 20
-1.512471
 30
0.0
 11
5.364503
 21
-1.512471
 31
0.0
  0
LINE
  8
CI
 10
5.197003
 20
-1.667871
 30
0.0
 11
5.364503
 21
-1.667871
 31
0.0
  0
LINE
  8
CI
 10
5.134503
 20
-1.761671
 30
0.0
 11
5.364503
 21
-1.761671
 31
0.0
  0
LINE
  8
CI
 10
5.103253
 20
-1.746371
 30
0.0
 11
5.134503
 21
-1.761671
 31
0.0
  0
LINE
  8
CI
 10
5.072003
 20
-1.761671
 30
0.0
 11
5.103253
 21
-1.746371
 31
0.0
  0
ARC
  8
CI
 10
5.319513
 20
-1.714771
 30
0.0
 40
0.06499
 50
313.809396
 51
46.190604
  0
LINE
  8
CI
 10
5.427629
 20
-1.527671
 30
0.0
 11
5.427629
 21
-1.652671
 31
0.0
  0
ARC
  8
CI
 10
5.424503
 20
-1.632671
 30
0.0
 40
0.02
 50
270.0
 51
0.0
  0
ARC
  8
CI
 10
5.424503
 20
-1.547671
 30
0.0
 40
0.02
 50
0.0
 51
90.0
  0
ARC
  8
CI
 10
5.223571
 20
-1.590171
 30
0.0
 40
0.160932
 50
331.130789
 51
28.869211
  0
LINE
  8
CI
 10
5.384503
 20
-1.652671
 30
0.0
 11
5.424503
 21
-1.652671
 31
0.0
  0
LINE
  8
CI
 10
5.384503
 20
-1.527671
 30
0.0
 11
5.424503
 21
-1.527671
 31
0.0
  0
LINE
  8
CI
 10
5.444503
 20
-1.547671
 30
0.0
 11
5.444503
 21
-1.632671
 31
0.0
  0
LINE
  8
3
 10
1.92617
 20
-1.150171
 30
0.0
 11
3.92617
 21
-1.150171
 31
0.0
  0
LINE
  8
CI
 10
2.20617
 20
-1.090171
 30
0.0
 11
3.64617
 21
-1.090171
 31
0.0
  0
LINE
  8
HID
 10
3.02617
 20
-0.340171
 30
0.0
 11
3.02617
 21
-1.090171
 31
0.0
  0
LINE
  8
HID
 10
2.82617
 20
-0.340171
 30
0.0
 11
2.82617
 21
-1.090171
 31
0.0
  0
LINE
  8
HID
 10
3.05617
 20
-0.340171
 30
0.0
 11
3.05617
 21
-1.090171
 31
0.0
  0
LINE
  8
HID
 10
2.79617
 20
-0.340171
 30
0.0
 11
2.79617
 21
-1.090171
 31
0.0
  0
LINE
  8
CI
 10
3.17617
 20
-0.371421
 30
0.0
 11
3.17617
 21
-1.090171
 31
0.0
  0
LINE
  8
CI
 10
2.67617
 20
-0.371421
 30
0.0
 11
2.67617
 21
-1.090171
 31
0.0
  0
LINE
  8
CI
 10
2.20617
 20
-1.150171
 30
0.0
 11
2.20617
 21
-1.090171
 31
0.0
  0
LINE
  8
CI
 10
2.67617
 20
-0.371421
 30
0.0
 11
3.17617
 21
-0.371421
 31
0.0
  0
LINE
  8
CI
 10
2.70742
 20
-0.340171
 30
0.0
 11
3.14492
 21
-0.340171
 31
0.0
  0
LINE
  8
CI
 10
2.70742
 20
-0.340171
 30
0.0
 11
2.67617
 21
-0.371421
 31
0.0
  0
LINE
  8
CI
 10
3.14492
 20
-0.340171
 30
0.0
 11
3.17617
 21
-0.371421
 31
0.0
  0
LINE
  8
CENTER
 10
-2.178764
 20
4.290922
 30
0.0
 11
-2.178764
 21
3.730543
 31
0.0
  0
LINE
  8
HID
 10
-2.031264
 20
4.163845
 30
0.0
 11
-2.031264
 21
3.800426
 31
0.0
  0
LINE
  8
HID
 10
-1.991264
 20
4.163845
 30
0.0
 11
-1.991264
 21
3.800426
 31
0.0
  0
LINE
  8
3
 10
-1.928764
 20
4.163845
 30
0.0
 11
-1.928764
 21
2.663845
 31
0.0
  0
LINE
  8
CENTER
 10
-2.178764
 20
3.323845
 30
0.0
 11
-2.178764
 21
3.503845
 31
0.0
  0
LINE
  8
CENTER
 10
-2.088764
 20
3.413845
 30
0.0
 11
-2.268764
 21
3.413845
 31
0.0
  0
LINE
  8
CI
 10
4.884503
 20
-1.418671
 30
0.0
 11
5.072003
 21
-1.418671
 31
0.0
  0
LINE
  8
CI
 10
4.03617
 20
-1.433921
 30
0.0
 11
4.884503
 21
-1.433921
 31
0.0
  0
LINE
  8
CI
 10
3.64617
 20
-1.150171
 30
0.0
 11
3.64617
 21
-1.090171
 31
0.0
  0
LINE
  8
CI
 10
3.94617
 20
-1.371371
 30
0.0
 11
4.01617
 21
-1.371371
 31
0.0
  0
LINE
  8
CI
 10
5.134503
 20
-1.418671
 30
0.0
 11
5.364503
 21
-1.418671
 31
0.0
  0
LINE
  8
CI
 10
5.103253
 20
-1.433971
 30
0.0
 11
5.134503
 21
-1.418671
 31
0.0
  0
LINE
  8
CI
 10
5.072003
 20
-1.418671
 30
0.0
 11
5.103253
 21
-1.433971
 31
0.0
  0
ENDSEC
  0
EOF
