  0
SECTION
  2
HEADER
  9
$ACADVER
  1
AC1009
  9
$INSBASE
 10
0.0
 20
0.0
 30
0.0
  9
$EXTMIN
 10
-0.3535617325998146
 20
-0.9677119145259212
 30
-0.0015258207003583
  9
$EXTMAX
 10
0.3496910298164266
 20
0.1698305669355022
 30
0.0000000349246037
  9
$LIMMIN
 10
0.0
 20
0.0
  9
$LIMMAX
 10
297.0
 20
210.0
  9
$ORTHOMODE
 70
     1
  9
$REGENMODE
 70
     1
  9
$FILLMODE
 70
     1
  9
$QTEXTMODE
 70
     0
  9
$MIRRTEXT
 70
     0
  9
$DRAGMODE
 70
     2
  9
$LTSCALE
 40
0.2
  9
$OSMODE
 70
     8
  9
$ATTMODE
 70
     1
  9
$TEXTSIZE
 40
0.2
  9
$TRACEWID
 40
0.05
  9
$TEXTSTYLE
  7
GHS
  9
$CLAYER
  8
0
  9
$CELTYPE
  6
BYLAYER
  9
$CECOLOR
 62
   256
  9
$DIMSCALE
 40
0.2
  9
$DIMASZ
 40
2.5
  9
$DIMEXO
 40
1.0
  9
$DIMDLI
 40
1.0
  9
$DIMRND
 40
0.0
  9
$DIMDLE
 40
0.0
  9
$DIMEXE
 40
1.0
  9
$DIMTP
 40
0.0
  9
$DIMTM
 40
0.0
  9
$DIMTXT
 40
3.0
  9
$DIMCEN
 40
2.5
  9
$DIMTSZ
 40
0.0
  9
$DIMTOL
 70
     0
  9
$DIMLIM
 70
     0
  9
$DIMTIH
 70
     0
  9
$DIMTOH
 70
     0
  9
$DIMSE1
 70
     0
  9
$DIMSE2
 70
     0
  9
$DIMTAD
 70
     1
  9
$DIMZIN
 70
     8
  9
$DIMBLK
  1

  9
$DIMASO
 70
     1
  9
$DIMSHO
 70
     1
  9
$DIMPOST
  1

  9
$DIMAPOST
  1

  9
$DIMALT
 70
     0
  9
$DIMALTD
 70
     2
  9
$DIMALTF
 40
0.0394
  9
$DIMLFAC
 40
1.0
  9
$DIMTOFL
 70
     1
  9
$DIMTVP
 40
1.0
  9
$DIMTIX
 70
     1
  9
$DIMSOXD
 70
     0
  9
$DIMSAH
 70
     1
  9
$DIMBLK1
  1
OPEN
  9
$DIMBLK2
  1
OPEN
  9
$DIMSTYLE
  2
STANDARD
  9
$DIMCLRD
 70
     6
  9
$DIMCLRE
 70
     6
  9
$DIMCLRT
 70
     4
  9
$DIMTFAC
 40
1.0
  9
$DIMGAP
 40
0.8
  9
$LUNITS
 70
     2
  9
$LUPREC
 70
     4
  9
$SKETCHINC
 40
0.1
  9
$FILLETRAD
 40
0.2
  9
$AUNITS
 70
     0
  9
$AUPREC
 70
     0
  9
$MENU
  1
.
  9
$ELEVATION
 40
0.0
  9
$PELEVATION
 40
0.0
  9
$THICKNESS
 40
0.0
  9
$LIMCHECK
 70
     0
  9
$BLIPMODE
 70
     0
  9
$CHAMFERA
 40
0.5
  9
$CHAMFERB
 40
0.5
  9
$SKPOLY
 70
     1
  9
$TDCREATE
 40
2450788.5131729161
  9
$TDUPDATE
 40
2453313.5679273261
  9
$TDINDWG
 40
5.0789610531999996
  9
$TDUSRTIMER
 40
5.0789610531999996
  9
$USRTIMER
 70
     1
  9
$ANGBASE
 50
0.0
  9
$ANGDIR
 70
     0
  9
$PDMODE
 70
     0
  9
$PDSIZE
 40
0.0
  9
$PLINEWID
 40
0.0
  9
$COORDS
 70
     0
  9
$SPLFRAME
 70
     0
  9
$SPLINETYPE
 70
     6
  9
$SPLINESEGS
 70
     8
  9
$ATTDIA
 70
     0
  9
$ATTREQ
 70
     1
  9
$HANDLING
 70
 12289
  9
$HANDSEED
  5
7FC2
  9
$SURFTAB1
 70
     6
  9
$SURFTAB2
 70
     6
  9
$SURFTYPE
 70
     6
  9
$SURFU
 70
     6
  9
$SURFV
 70
     6
  9
$UCSNAME
  2

  9
$UCSORG
 10
0.0
 20
0.0
 30
0.0
  9
$UCSXDIR
 10
1.0
 20
0.0
 30
0.0
  9
$UCSYDIR
 10
0.0
 20
1.0
 30
0.0
  9
$PUCSNAME
  2

  9
$PUCSORG
 10
0.0
 20
0.0
 30
0.0
  9
$PUCSXDIR
 10
1.0
 20
0.0
 30
0.0
  9
$PUCSYDIR
 10
0.0
 20
1.0
 30
0.0
  9
$USERI1
 70
     0
  9
$USERI2
 70
     0
  9
$USERI3
 70
     0
  9
$USERI4
 70
     0
  9
$USERI5
 70
     0
  9
$USERR1
 40
0.0
  9
$USERR2
 40
0.0
  9
$USERR3
 40
0.0
  9
$USERR4
 40
0.0
  9
$USERR5
 40
0.0
  9
$WORLDVIEW
 70
     1
  9
$SHADEDGE
 70
     3
  9
$SHADEDIF
 70
    70
  9
$TILEMODE
 70
     1
  9
$MAXACTVP
 70
    48
  9
$PLIMCHECK
 70
     0
  9
$PEXTMIN
 10
1.0000000000000000E+020
 20
1.0000000000000000E+020
 30
1.0000000000000000E+020
  9
$PEXTMAX
 10
-1.0000000000000000E+020
 20
-1.0000000000000000E+020
 30
-1.0000000000000000E+020
  9
$PLIMMIN
 10
0.0
 20
0.0
  9
$PLIMMAX
 10
12.0
 20
9.0
  9
$UNITMODE
 70
     0
  9
$VISRETAIN
 70
     0
  9
$PLINEGEN
 70
     0
  9
$PSLTSCALE
 70
     1
  0
ENDSEC
  0
SECTION
  2
TABLES
  0
TABLE
  2
VPORT
 70
     6
  0
VPORT
  2
*ACTIVE
 70
     0
 10
0.0
 20
0.0
 11
1.0
 21
1.0
 12
-61.829268877524399
 22
-102.31176181274211
 13
0.0
 23
0.0
 14
0.01
 24
0.01
 15
350.0
 25
350.0
 16
0.0
 26
0.0
 36
1.0
 17
61.827333526132698
 27
101.9128211389469
 37
0.0
 40
1.1491698322089119
 41
1.8430034129692829
 42
50.0
 43
0.0
 44
0.0
 50
0.0
 51
0.0
 71
     0
 72
 20000
 73
     1
 74
     0
 75
     0
 76
     0
 77
     0
 78
     0
  0
ENDTAB
  0
TABLE
  2
LTYPE
 70
    12
  0
LTYPE
  2
CONTINUOUS
 70
     0
  3
Solid line
 72
    65
 73
     0
 40
0.0
  0
LTYPE
  2
CENTER
 70
     0
  3
____ _ ____ _ ____ _ ____ _ ____ _ ____ _ ____ 
 72
    65
 73
     4
 40
2.0
 49
1.25
 49
-0.25
 49
0.25
 49
-0.25
  0
LTYPE
  2
HIDDEN
 70
     0
  3
__ __ __ __ __ __ __ __ __ __ __ __ __ __ __ __
 72
    65
 73
     2
 40
0.375
 49
0.25
 49
-0.125
  0
LTYPE
  2
PHANTOM2
 70
     0
  3
___ _ _ ___ _ _ ___ _ _ ___ _ _ ___ _ _ ___ _ _
 72
    65
 73
     6
 40
1.25
 49
0.625
 49
-0.125
 49
0.125
 49
-0.125
 49
0.125
 49
-0.125
  0
LTYPE
  2
AMCONSTR
 70
     0
  3
_______________________
 72
    65
 73
     2
 40
9999.0
 49
9999.0
 49
0.0
  0
LTYPE
  2
HIDDEN2
 70
     0
  3
_ _ _ _ _ _ _ _ _ _ _ _ _ _ _ _ _ _ _ _ _ _ _ _
 72
    65
 73
     2
 40
0.1875
 49
0.125
 49
-0.0625
  0
LTYPE
  2
CENTER2
 70
     0
  3
___ _ ___ _ ___ _ ___ _ ___ _ ___ _ ___ _ ___ _
 72
    65
 73
     4
 40
1.125
 49
0.75
 49
-0.125
 49
0.125
 49
-0.125
  0
LTYPE
  2
AMZIGZAG2
 70
     0
  3
/\/-/\/-/\/-/\/-/\/-/\/
 72
    65
 73
     2
 40
0.4401
 49
0.0001
 49
-0.4400000000000002
  0
LTYPE
  2
ASULTYPE
 70
     0
  3
Solid line
 72
    65
 73
     2
 40
3.0
 49
2.5
 49
0.5
  0
LTYPE
  2
ASVLTYPE
 70
     0
  3
__ __ __ __ __ __ __ __ __ __ __ __ __ __ __ __ __ __ __ __ __
 72
    65
 73
     2
 40
0.75
 49
0.5
 49
-0.25
  0
LTYPE
  2
ACANSTGB
 70
     0
  3
__ . . __ . .
 72
    65
 73
     6
 40
0.35433070866
 49
0.15748031496
 49
-0.03937007874
 49
0.03937007874
 49
-0.03937007874
 49
0.03937007874
 49
-0.03937007874
  0
LTYPE
  2
ACANSTGL
 70
     0
  3
_ _ _ _ _
 72
    65
 73
     2
 40
0.11811023622
 49
0.07874015748
 49
-0.03937007874
  0
ENDTAB
  0
TABLE
  2
LAYER
 70
     3
  0
LAYER
  2
0
 70
     0
 62
     7
  6
CONTINUOUS
  0
LAYER
  2
DEFPOINTS
 70
     0
 62
     7
  6
CONTINUOUS
  0
ENDTAB
  0
TABLE
  2
STYLE
 70
     6
  0
STYLE
  2
STANDARD
 70
     0
 40
0.0
 41
1.0
 50
0.0
 71
     0
 42
600.0
  3
txt
  4

  0
STYLE
  2
ROMANS
 70
     0
 40
0.0
 41
1.0
 50
0.0
 71
     0
 42
0.156
  3
romans.shx
  4

  0
STYLE
  2
GHS
 70
     0
 40
0.0
 41
0.8
 50
0.0
 71
     0
 42
0.2
  3
romans.shx
  4
ghs.shx
  0
STYLE
  2

 70
     1
 40
0.0
 41
1.0
 50
0.0
 71
     0
 42
0.156
  3
ltypeshp.shx
  4

  0
STYLE
  2
ACANSTS
 70
     0
 40
1.0
 41
1.0
 50
0.0
 71
     0
 42
0.156
  3
romans.shx
  4

  0
STYLE
  2
ACANSGDT
 70
     0
 40
0.0
 41
1.0
 50
0.0
 71
     0
 42
0.156
  3
amgdtans.shx
  4

  0
ENDTAB
  0
TABLE
  2
VIEW
 70
     0
  0
ENDTAB
  0
TABLE
  2
UCS
 70
     0
  0
ENDTAB
  0
TABLE
  2
APPID
 70
    16
  0
APPID
  2
ACAD
 70
     0
  0
APPID
  2
AD_DRAW
 70
     0
  0
APPID
  2
DESIGNERASSEMBLIES
 70
     0
  0
APPID
  2
MCAD_NO_VIS
 70
     0
  0
APPID
  2
ASURF_PCURVE_APPNAME
 70
     0
  0
APPID
  2
GENIUS_GENDIM_13
 70
     0
  0
APPID
  2
GENIUS_GENDTOL_13
 70
     0
  0
APPID
  2
GENIUS_GE3DTOL_13
 70
     0
  0
APPID
  2
ACAD_TEMP_GRAPHIC
 70
     0
  0
APPID
  2
ACATTRIBSERVICES
 70
     0
  0
APPID
  2
ACADM_DIM_EDIT
 70
     0
  0
APPID
  2
AD_SKETCHDIM
 70
     0
  0
APPID
  2
GENIUS_GENDIMSH_14
 70
     0
  0
APPID
  2
AMG_3D2D_5_0
 70
     0
  0
APPID
  2
AMDT_DM_ADJ
 70
     0
  0
APPID
  2
DCO15
 70
     0
  0
ENDTAB
  0
TABLE
  2
DIMSTYLE
 70
     8
  0
DIMSTYLE
  2
STANDARD
 70
     0
  3

  4

  5

  6
OPEN
  7
OPEN
 40
90.0
 41
3.0
 42
1.0
 43
0.38
 44
0.8
 45
0.0
 46
0.0
 47
0.1
 48
0.1
140
3.0
141
0.09
142
0.0
143
25.399999999999999
144
1.0
145
0.0
146
1.0
147
1.0
 71
     0
 72
     0
 73
     0
 74
     0
 75
     0
 76
     0
 77
     1
 78
     9
170
     0
171
     2
172
     1
173
     1
174
     0
175
     0
176
     4
177
     4
178
     4
  0
DIMSTYLE
  2
AM_ANSI
 70
     0
  3

  4
mm
  5

  6

  7

 40
1.0
 41
0.1
 42
0.05
 43
0.5
 44
0.1
 45
0.0
 46
0.0
 47
0.1
 48
0.1
140
0.12
141
0.0
142
0.0
143
25.399999999999999
144
1.0
145
0.0
146
0.71
147
0.06
 71
     0
 72
     0
 73
     1
 74
     1
 75
     0
 76
     0
 77
     0
 78
     7
170
     0
171
     2
172
     0
173
     0
174
     0
175
     0
176
   256
177
   256
178
   256
  0
DIMSTYLE
  2
AM_ANSI$3
 70
     0
  3

  4
mm
  5

  6

  7

 40
1.0
 41
0.1
 42
0.05
 43
0.5
 44
0.1
 45
0.0
 46
0.0
 47
0.1
 48
0.1
140
0.12
141
0.0
142
0.0
143
25.399999999999999
144
1.0
145
0.0
146
0.71
147
0.06
 71
     0
 72
     0
 73
     1
 74
     1
 75
     0
 76
     0
 77
     0
 78
     7
170
     0
171
     2
172
     0
173
     0
174
     0
175
     0
176
   256
177
   256
178
   256
  0
DIMSTYLE
  2
AM_ANSI$4
 70
     0
  3

  4
mm
  5

  6

  7

 40
1.0
 41
0.1
 42
0.05
 43
0.5
 44
0.1
 45
0.0
 46
0.0
 47
0.1
 48
0.1
140
0.12
141
0.0
142
0.0
143
25.399999999999999
144
1.0
145
0.0
146
0.71
147
0.06
 71
     0
 72
     0
 73
     1
 74
     1
 75
     0
 76
     0
 77
     0
 78
     7
170
     0
171
     2
172
     0
173
     0
174
     0
175
     0
176
   256
177
   256
178
   256
  0
DIMSTYLE
  2
AM_ANSI$6
 70
     0
  3

  4
mm
  5

  6

  7

 40
1.0
 41
0.1
 42
0.05
 43
0.5
 44
0.1
 45
0.0
 46
0.0
 47
0.1
 48
0.1
140
0.12
141
0.0
142
0.0
143
25.399999999999999
144
1.0
145
0.0
146
0.71
147
0.06
 71
     0
 72
     0
 73
     1
 74
     1
 75
     0
 76
     0
 77
     0
 78
     7
170
     0
171
     2
172
     0
173
     0
174
     0
175
     0
176
   256
177
   256
178
   256
  0
DIMSTYLE
  2
AM_ANSI$7
 70
     0
  3

  4
mm
  5

  6

  7

 40
1.0
 41
0.1
 42
0.05
 43
0.5
 44
0.1
 45
0.0
 46
0.0
 47
0.1
 48
0.1
140
0.12
141
0.0
142
0.0
143
25.399999999999999
144
1.0
145
0.0
146
0.71
147
0.06
 71
     0
 72
     0
 73
     1
 74
     1
 75
     0
 76
     0
 77
     0
 78
     7
170
     0
171
     2
172
     0
173
     0
174
     0
175
     0
176
   256
177
   256
178
   256
  0
DIMSTYLE
  2
AM_ANSI$SF
 70
     0
  3

  4
mm
  5

  6

  7

 40
1.0
 41
0.1
 42
0.05
 43
0.5
 44
0.1
 45
0.0
 46
0.0
 47
0.1
 48
0.1
140
0.12
141
0.0
142
0.0
143
25.399999999999999
144
1.0
145
0.0
146
0.71
147
0.06
 71
     0
 72
     0
 73
     1
 74
     1
 75
     1
 76
     1
 77
     0
 78
     7
170
     0
171
     2
172
     0
173
     0
174
     0
175
     0
176
   256
177
   256
178
     2
  0
DIMSTYLE
  2
AM_ANSI$SH
 70
     0
  3

  4
mm
  5

  6
GENAXEH
  7

 40
1.0
 41
0.1
 42
0.05
 43
0.5
 44
0.1
 45
0.0
 46
0.0
 47
0.1
 48
0.1
140
0.12
141
0.0
142
0.0
143
25.399999999999999
144
1.0
145
0.0
146
0.71
147
0.06
 71
     0
 72
     0
 73
     1
 74
     1
 75
     1
 76
     1
 77
     0
 78
     7
170
     0
171
     2
172
     0
173
     1
174
     0
175
     0
176
   256
177
   256
178
     2
  0
ENDTAB
  0
ENDSEC
  0
SECTION
  2
BLOCKS
  0
BLOCK
  8
0
  2
$MODEL_SPACE
 70
     0
 10
0.0
 20
0.0
 30
0.0
  3
$MODEL_SPACE
  1

  0
ENDBLK
  5
6
  8
0
  0
BLOCK
 67
     1
  8
0
  2
$PAPER_SPACE
 70
     0
 10
0.0
 20
0.0
 30
0.0
  3
$PAPER_SPACE
  1

  0
ENDBLK
  5
9
 67
     1
  8
0
  0
BLOCK
  8
0
  2
_OPEN
 70
     0
 10
0.0
 20
0.0
 30
0.0
  3
_OPEN
  1

  0
LINE
  5
20
  8
0
  6
BYBLOCK
 62
     0
 10
-1.0
 20
0.1666666666666666
 30
0.0
 11
0.0
 21
0.0
 31
0.0
  0
LINE
  5
21
  8
0
  6
BYBLOCK
 62
     0
 10
0.0
 20
0.0
 30
0.0
 11
-1.0
 21
-0.1666666666666666
 31
0.0
  0
LINE
  5
22
  8
0
  6
BYBLOCK
 62
     0
 10
0.0
 20
0.0
 30
0.0
 11
-1.0
 21
0.0
 31
0.0
  0
ENDBLK
  5
24
  8
0
  0
BLOCK
  8
0
  2
GENAXEH
 70
     0
 10
0.0
 20
0.0
 30
0.0
  3
GENAXEH
  1

  0
LINE
  5
7D21
  8
0
 10
-1.0
 20
0.0
 30
0.0
 11
1.0
 21
0.0
 31
0.0
  0
ENDBLK
  5
7D22
  8
0
  0
ENDSEC
  0
SECTION
  2
ENTITIES
  0
LINE
  5
7490
  8
0
 10
0.0
 20
0.1574803160000036
 30
0.0
 11
0.0787401580000022
 21
0.1574803160000036
 31
0.0
  0
LINE
  5
749C
  8
0
 10
0.0787401580000022
 20
-0.1771653555000084
 30
0.0
 11
0.0787401580000022
 21
-0.0393700790000085
 31
0.0
  0
LINE
  5
749D
  8
0
 10
0.1574803159999973
 20
-0.1771653554999942
 30
0.0
 11
0.1574803160000044
 21
-0.0393700790000085
 31
0.0
  0
POLYLINE
  5
749E
  8
0
 10
0.0787401580000044
 20
-0.1771653554999942
 30
0.0
 66
     1
 70
     8
  0
VERTEX
  8
0
  5
7DBA
 10
0.0787402
 20
-0.177165
 30
0.000000
  70
    32
  0
VERTEX
  8
0
  5
7DBB
 10
0.0787520
 20
-0.177648
 30
0.000000
  70
    32
  0
VERTEX
  8
0
  5
7DBC
 10
0.0787876
 20
-0.178131
 30
0.000000
  70
    32
  0
VERTEX
  8
0
  5
7DBD
 10
0.0788468
 20
-0.178613
 30
0.000000
  70
    32
  0
VERTEX
  8
0
  5
7DBE
 10
0.0789297
 20
-0.179095
 30
0.000000
  70
    32
  0
VERTEX
  8
0
  5
7DBF
 10
0.0790362
 20
-0.179575
 30
0.000000
  70
    32
  0
VERTEX
  8
0
  5
7DC0
 10
0.0791663
 20
-0.180054
 30
0.000000
  70
    32
  0
VERTEX
  8
0
  5
7DC1
 10
0.0793198
 20
-0.180531
 30
0.000000
  70
    32
  0
VERTEX
  8
0
  5
7DC2
 10
0.0794966
 20
-0.181006
 30
0.000000
  70
    32
  0
VERTEX
  8
0
  5
7DC3
 10
0.0796968
 20
-0.181478
 30
0.000000
  70
    32
  0
VERTEX
  8
0
  5
7DC4
 10
0.0799200
 20
-0.181948
 30
0.000000
  70
    32
  0
VERTEX
  8
0
  5
7DC5
 10
0.0801663
 20
-0.182416
 30
0.000000
  70
    32
  0
VERTEX
  8
0
  5
7DC6
 10
0.0804354
 20
-0.182880
 30
0.000000
  70
    32
  0
VERTEX
  8
0
  5
7DC7
 10
0.0807272
 20
-0.183340
 30
0.000000
  70
    32
  0
VERTEX
  8
0
  5
7DC8
 10
0.0810416
 20
-0.183797
 30
0.000000
  70
    32
  0
VERTEX
  8
0
  5
7DC9
 10
0.0813782
 20
-0.184250
 30
0.000000
  70
    32
  0
VERTEX
  8
0
  5
7DCA
 10
0.0817370
 20
-0.184698
 30
0.000000
  70
    32
  0
VERTEX
  8
0
  5
7DCB
 10
0.0821177
 20
-0.185143
 30
0.000000
  70
    32
  0
VERTEX
  8
0
  5
7DCC
 10
0.0825201
 20
-0.185582
 30
0.000000
  70
    32
  0
VERTEX
  8
0
  5
7DCD
 10
0.0829439
 20
-0.186016
 30
0.000000
  70
    32
  0
VERTEX
  8
0
  5
7DCE
 10
0.0833889
 20
-0.186445
 30
0.000000
  70
    32
  0
VERTEX
  8
0
  5
7DCF
 10
0.0838548
 20
-0.186868
 30
0.000000
  70
    32
  0
VERTEX
  8
0
  5
7DD0
 10
0.0843414
 20
-0.187285
 30
0.000000
  70
    32
  0
VERTEX
  8
0
  5
7DD1
 10
0.0848483
 20
-0.187697
 30
0.000000
  70
    32
  0
VERTEX
  8
0
  5
7DD2
 10
0.0853752
 20
-0.188102
 30
0.000000
  70
    32
  0
VERTEX
  8
0
  5
7DD3
 10
0.0859219
 20
-0.188500
 30
0.000000
  70
    32
  0
VERTEX
  8
0
  5
7DD4
 10
0.0864879
 20
-0.188892
 30
0.000000
  70
    32
  0
VERTEX
  8
0
  5
7DD5
 10
0.0870730
 20
-0.189276
 30
0.000000
  70
    32
  0
VERTEX
  8
0
  5
7DD6
 10
0.0876768
 20
-0.189653
 30
0.000000
  70
    32
  0
VERTEX
  8
0
  5
7DD7
 10
0.0882989
 20
-0.190023
 30
0.000000
  70
    32
  0
VERTEX
  8
0
  5
7DD8
 10
0.0889389
 20
-0.190385
 30
0.000000
  70
    32
  0
VERTEX
  8
0
  5
7DD9
 10
0.0895966
 20
-0.190739
 30
0.000000
  70
    32
  0
VERTEX
  8
0
  5
7DDA
 10
0.0902714
 20
-0.191085
 30
0.000000
  70
    32
  0
VERTEX
  8
0
  5
7DDB
 10
0.0909630
 20
-0.191422
 30
0.000000
  70
    32
  0
VERTEX
  8
0
  5
7DDC
 10
0.0916709
 20
-0.191751
 30
0.000000
  70
    32
  0
VERTEX
  8
0
  5
7DDD
 10
0.0923948
 20
-0.192071
 30
0.000000
  70
    32
  0
VERTEX
  8
0
  5
7DDE
 10
0.0931341
 20
-0.192382
 30
0.000000
  70
    32
  0
VERTEX
  8
0
  5
7DDF
 10
0.0938885
 20
-0.192684
 30
0.000000
  70
    32
  0
VERTEX
  8
0
  5
7DE0
 10
0.0946575
 20
-0.192977
 30
0.000000
  70
    32
  0
VERTEX
  8
0
  5
7DE1
 10
0.0954406
 20
-0.193260
 30
0.000000
  70
    32
  0
VERTEX
  8
0
  5
7DE2
 10
0.0962374
 20
-0.193533
 30
0.000000
  70
    32
  0
VERTEX
  8
0
  5
7DE3
 10
0.0970473
 20
-0.193796
 30
0.000000
  70
    32
  0
VERTEX
  8
0
  5
7DE4
 10
0.0978700
 20
-0.194050
 30
0.000000
  70
    32
  0
VERTEX
  8
0
  5
7DE5
 10
0.0987048
 20
-0.194293
 30
0.000000
  70
    32
  0
VERTEX
  8
0
  5
7DE6
 10
0.0995513
 20
-0.194526
 30
0.000000
  70
    32
  0
VERTEX
  8
0
  5
7DE7
 10
0.100409
 20
-0.194749
 30
0.000000
  70
    32
  0
VERTEX
  8
0
  5
7DE8
 10
0.101277
 20
-0.194960
 30
0.000000
  70
    32
  0
VERTEX
  8
0
  5
7DE9
 10
0.102156
 20
-0.195162
 30
0.000000
  70
    32
  0
VERTEX
  8
0
  5
7DEA
 10
0.103044
 20
-0.195352
 30
0.000000
  70
    32
  0
VERTEX
  8
0
  5
7DEB
 10
0.103941
 20
-0.195531
 30
0.000000
  70
    32
  0
VERTEX
  8
0
  5
7DEC
 10
0.104847
 20
-0.195700
 30
0.000000
  70
    32
  0
VERTEX
  8
0
  5
7DED
 10
0.105761
 20
-0.195857
 30
0.000000
  70
    32
  0
VERTEX
  8
0
  5
7DEE
 10
0.106682
 20
-0.196003
 30
0.000000
  70
    32
  0
VERTEX
  8
0
  5
7DEF
 10
0.107610
 20
-0.196137
 30
0.000000
  70
    32
  0
VERTEX
  8
0
  5
7DF0
 10
0.108544
 20
-0.196260
 30
0.000000
  70
    32
  0
VERTEX
  8
0
  5
7DF1
 10
0.109484
 20
-0.196372
 30
0.000000
  70
    32
  0
VERTEX
  8
0
  5
7DF2
 10
0.110430
 20
-0.196472
 30
0.000000
  70
    32
  0
VERTEX
  8
0
  5
7DF3
 10
0.111379
 20
-0.196561
 30
0.000000
  70
    32
  0
VERTEX
  8
0
  5
7DF4
 10
0.112333
 20
-0.196637
 30
0.000000
  70
    32
  0
VERTEX
  8
0
  5
7DF5
 10
0.113291
 20
-0.196702
 30
0.000000
  70
    32
  0
VERTEX
  8
0
  5
7DF6
 10
0.114251
 20
-0.196756
 30
0.000000
  70
    32
  0
VERTEX
  8
0
  5
7DF7
 10
0.115214
 20
-0.196797
 30
0.000000
  70
    32
  0
VERTEX
  8
0
  5
7DF8
 10
0.116178
 20
-0.196827
 30
0.000000
  70
    32
  0
VERTEX
  8
0
  5
7DF9
 10
0.117144
 20
-0.196844
 30
0.000000
  70
    32
  0
VERTEX
  8
0
  5
7DFA
 10
0.118110
 20
-0.196850
 30
0.000000
  70
    32
  0
VERTEX
  8
0
  5
7DFB
 10
0.119076
 20
-0.196844
 30
0.000000
  70
    32
  0
VERTEX
  8
0
  5
7DFC
 10
0.120042
 20
-0.196827
 30
0.000000
  70
    32
  0
VERTEX
  8
0
  5
7DFD
 10
0.121006
 20
-0.196797
 30
0.000000
  70
    32
  0
VERTEX
  8
0
  5
7DFE
 10
0.121969
 20
-0.196756
 30
0.000000
  70
    32
  0
VERTEX
  8
0
  5
7DFF
 10
0.122930
 20
-0.196702
 30
0.000000
  70
    32
  0
VERTEX
  8
0
  5
7E00
 10
0.123887
 20
-0.196637
 30
0.000000
  70
    32
  0
VERTEX
  8
0
  5
7E01
 10
0.124841
 20
-0.196561
 30
0.000000
  70
    32
  0
VERTEX
  8
0
  5
7E02
 10
0.125791
 20
-0.196472
 30
0.000000
  70
    32
  0
VERTEX
  8
0
  5
7E03
 10
0.126736
 20
-0.196372
 30
0.000000
  70
    32
  0
VERTEX
  8
0
  5
7E04
 10
0.127676
 20
-0.196260
 30
0.000000
  70
    32
  0
VERTEX
  8
0
  5
7E05
 10
0.128611
 20
-0.196137
 30
0.000000
  70
    32
  0
VERTEX
  8
0
  5
7E06
 10
0.129539
 20
-0.196003
 30
0.000000
  70
    32
  0
VERTEX
  8
0
  5
7E07
 10
0.130460
 20
-0.195857
 30
0.000000
  70
    32
  0
VERTEX
  8
0
  5
7E08
 10
0.131374
 20
-0.195700
 30
0.000000
  70
    32
  0
VERTEX
  8
0
  5
7E09
 10
0.132279
 20
-0.195531
 30
0.000000
  70
    32
  0
VERTEX
  8
0
  5
7E0A
 10
0.133177
 20
-0.195352
 30
0.000000
  70
    32
  0
VERTEX
  8
0
  5
7E0B
 10
0.134065
 20
-0.195162
 30
0.000000
  70
    32
  0
VERTEX
  8
0
  5
7E0C
 10
0.134943
 20
-0.194960
 30
0.000000
  70
    32
  0
VERTEX
  8
0
  5
7E0D
 10
0.135811
 20
-0.194749
 30
0.000000
  70
    32
  0
VERTEX
  8
0
  5
7E0E
 10
0.136669
 20
-0.194526
 30
0.000000
  70
    32
  0
VERTEX
  8
0
  5
7E0F
 10
0.137516
 20
-0.194293
 30
0.000000
  70
    32
  0
VERTEX
  8
0
  5
7E10
 10
0.138351
 20
-0.194050
 30
0.000000
  70
    32
  0
VERTEX
  8
0
  5
7E11
 10
0.139173
 20
-0.193796
 30
0.000000
  70
    32
  0
VERTEX
  8
0
  5
7E12
 10
0.139983
 20
-0.193533
 30
0.000000
  70
    32
  0
VERTEX
  8
0
  5
7E13
 10
0.140780
 20
-0.193260
 30
0.000000
  70
    32
  0
VERTEX
  8
0
  5
7E14
 10
0.141563
 20
-0.192977
 30
0.000000
  70
    32
  0
VERTEX
  8
0
  5
7E15
 10
0.142332
 20
-0.192684
 30
0.000000
  70
    32
  0
VERTEX
  8
0
  5
7E16
 10
0.143086
 20
-0.192382
 30
0.000000
  70
    32
  0
VERTEX
  8
0
  5
7E17
 10
0.143826
 20
-0.192071
 30
0.000000
  70
    32
  0
VERTEX
  8
0
  5
7E18
 10
0.144550
 20
-0.191751
 30
0.000000
  70
    32
  0
VERTEX
  8
0
  5
7E19
 10
0.145258
 20
-0.191422
 30
0.000000
  70
    32
  0
VERTEX
  8
0
  5
7E1A
 10
0.145949
 20
-0.191085
 30
0.000000
  70
    32
  0
VERTEX
  8
0
  5
7E1B
 10
0.146624
 20
-0.190739
 30
0.000000
  70
    32
  0
VERTEX
  8
0
  5
7E1C
 10
0.147282
 20
-0.190385
 30
0.000000
  70
    32
  0
VERTEX
  8
0
  5
7E1D
 10
0.147922
 20
-0.190023
 30
0.000000
  70
    32
  0
VERTEX
  8
0
  5
7E1E
 10
0.148544
 20
-0.189653
 30
0.000000
  70
    32
  0
VERTEX
  8
0
  5
7E1F
 10
0.149147
 20
-0.189276
 30
0.000000
  70
    32
  0
VERTEX
  8
0
  5
7E20
 10
0.149733
 20
-0.188892
 30
0.000000
  70
    32
  0
VERTEX
  8
0
  5
7E21
 10
0.150299
 20
-0.188500
 30
0.000000
  70
    32
  0
VERTEX
  8
0
  5
7E22
 10
0.150845
 20
-0.188102
 30
0.000000
  70
    32
  0
VERTEX
  8
0
  5
7E23
 10
0.151372
 20
-0.187697
 30
0.000000
  70
    32
  0
VERTEX
  8
0
  5
7E24
 10
0.151879
 20
-0.187285
 30
0.000000
  70
    32
  0
VERTEX
  8
0
  5
7E25
 10
0.152366
 20
-0.186868
 30
0.000000
  70
    32
  0
VERTEX
  8
0
  5
7E26
 10
0.152832
 20
-0.186445
 30
0.000000
  70
    32
  0
VERTEX
  8
0
  5
7E27
 10
0.153277
 20
-0.186016
 30
0.000000
  70
    32
  0
VERTEX
  8
0
  5
7E28
 10
0.153700
 20
-0.185582
 30
0.000000
  70
    32
  0
VERTEX
  8
0
  5
7E29
 10
0.154103
 20
-0.185143
 30
0.000000
  70
    32
  0
VERTEX
  8
0
  5
7E2A
 10
0.154483
 20
-0.184698
 30
0.000000
  70
    32
  0
VERTEX
  8
0
  5
7E2B
 10
0.154842
 20
-0.184250
 30
0.000000
  70
    32
  0
VERTEX
  8
0
  5
7E2C
 10
0.155179
 20
-0.183797
 30
0.000000
  70
    32
  0
VERTEX
  8
0
  5
7E2D
 10
0.155493
 20
-0.183340
 30
0.000000
  70
    32
  0
VERTEX
  8
0
  5
7E2E
 10
0.155785
 20
-0.182880
 30
0.000000
  70
    32
  0
VERTEX
  8
0
  5
7E2F
 10
0.156054
 20
-0.182416
 30
0.000000
  70
    32
  0
VERTEX
  8
0
  5
7E30
 10
0.156300
 20
-0.181948
 30
0.000000
  70
    32
  0
VERTEX
  8
0
  5
7E31
 10
0.156524
 20
-0.181478
 30
0.000000
  70
    32
  0
VERTEX
  8
0
  5
7E32
 10
0.156724
 20
-0.181006
 30
0.000000
  70
    32
  0
VERTEX
  8
0
  5
7E33
 10
0.156901
 20
-0.180531
 30
0.000000
  70
    32
  0
VERTEX
  8
0
  5
7E34
 10
0.157054
 20
-0.180054
 30
0.000000
  70
    32
  0
VERTEX
  8
0
  5
7E35
 10
0.157184
 20
-0.179575
 30
0.000000
  70
    32
  0
VERTEX
  8
0
  5
7E36
 10
0.157291
 20
-0.179095
 30
0.000000
  70
    32
  0
VERTEX
  8
0
  5
7E37
 10
0.157374
 20
-0.178613
 30
0.000000
  70
    32
  0
VERTEX
  8
0
  5
7E38
 10
0.157433
 20
-0.178131
 30
0.000000
  70
    32
  0
VERTEX
  8
0
  5
7E39
 10
0.157468
 20
-0.177648
 30
0.000000
  70
    32
  0
VERTEX
  8
0
  5
7E3A
 10
0.157480
 20
-0.177165
 30
0.000000
  70
    32
  0
SEQEND
  8
0
  5
7E3B
  0
LINE
  5
749F
  8
0
 10
0.0787401580000022
 20
-0.1968503949999983
 30
0.0
 11
0.1181102370000104
 21
-0.1968503949999983
 31
0.0
  0
POLYLINE
  5
74A0
  8
0
 10
0.0000000000000066
 20
-0.1968503949999965
 30
0.0
 66
     1
 70
     8
  0
VERTEX
  8
0
  5
7E3C
 10
6.61773e-015
 20
-0.196850
 30
0.000000
  70
    32
  0
VERTEX
  8
0
  5
7E3D
 10
0.000966263
 20
-0.196849
 30
0.000000
  70
    32
  0
VERTEX
  8
0
  5
7E3E
 10
0.00193238
 20
-0.196844
 30
0.000000
  70
    32
  0
VERTEX
  8
0
  5
7E3F
 10
0.00289821
 20
-0.196837
 30
0.000000
  70
    32
  0
VERTEX
  8
0
  5
7E40
 10
0.00386360
 20
-0.196827
 30
0.000000
  70
    32
  0
VERTEX
  8
0
  5
7E41
 10
0.00482840
 20
-0.196813
 30
0.000000
  70
    32
  0
VERTEX
  8
0
  5
7E42
 10
0.00579249
 20
-0.196797
 30
0.000000
  70
    32
  0
VERTEX
  8
0
  5
7E43
 10
0.00675569
 20
-0.196778
 30
0.000000
  70
    32
  0
VERTEX
  8
0
  5
7E44
 10
0.00771789
 20
-0.196756
 30
0.000000
  70
    32
  0
VERTEX
  8
0
  5
7E45
 10
0.00867891
 20
-0.196730
 30
0.000000
  70
    32
  0
VERTEX
  8
0
  5
7E46
 10
0.00963864
 20
-0.196702
 30
0.000000
  70
    32
  0
VERTEX
  8
0
  5
7E47
 10
0.0105969
 20
-0.196671
 30
0.000000
  70
    32
  0
VERTEX
  8
0
  5
7E48
 10
0.0115536
 20
-0.196637
 30
0.000000
  70
    32
  0
VERTEX
  8
0
  5
7E49
 10
0.0125085
 20
-0.196600
 30
0.000000
  70
    32
  0
VERTEX
  8
0
  5
7E4A
 10
0.0134616
 20
-0.196561
 30
0.000000
  70
    32
  0
VERTEX
  8
0
  5
7E4B
 10
0.0144126
 20
-0.196518
 30
0.000000
  70
    32
  0
VERTEX
  8
0
  5
7E4C
 10
0.0153614
 20
-0.196472
 30
0.000000
  70
    32
  0
VERTEX
  8
0
  5
7E4D
 10
0.0163080
 20
-0.196424
 30
0.000000
  70
    32
  0
VERTEX
  8
0
  5
7E4E
 10
0.0172521
 20
-0.196372
 30
0.000000
  70
    32
  0
VERTEX
  8
0
  5
7E4F
 10
0.0181936
 20
-0.196318
 30
0.000000
  70
    32
  0
VERTEX
  8
0
  5
7E50
 10
0.0191323
 20
-0.196260
 30
0.000000
  70
    32
  0
VERTEX
  8
0
  5
7E51
 10
0.0200682
 20
-0.196200
 30
0.000000
  70
    32
  0
VERTEX
  8
0
  5
7E52
 10
0.0210010
 20
-0.196137
 30
0.000000
  70
    32
  0
VERTEX
  8
0
  5
7E53
 10
0.0219307
 20
-0.196071
 30
0.000000
  70
    32
  0
VERTEX
  8
0
  5
7E54
 10
0.0228571
 20
-0.196003
 30
0.000000
  70
    32
  0
VERTEX
  8
0
  5
7E55
 10
0.0237800
 20
-0.195931
 30
0.000000
  70
    32
  0
VERTEX
  8
0
  5
7E56
 10
0.0246993
 20
-0.195857
 30
0.000000
  70
    32
  0
VERTEX
  8
0
  5
7E57
 10
0.0256150
 20
-0.195780
 30
0.000000
  70
    32
  0
VERTEX
  8
0
  5
7E58
 10
0.0265268
 20
-0.195700
 30
0.000000
  70
    32
  0
VERTEX
  8
0
  5
7E59
 10
0.0274345
 20
-0.195617
 30
0.000000
  70
    32
  0
VERTEX
  8
0
  5
7E5A
 10
0.0283382
 20
-0.195531
 30
0.000000
  70
    32
  0
VERTEX
  8
0
  5
7E5B
 10
0.0292376
 20
-0.195443
 30
0.000000
  70
    32
  0
VERTEX
  8
0
  5
7E5C
 10
0.0301326
 20
-0.195352
 30
0.000000
  70
    32
  0
VERTEX
  8
0
  5
7E5D
 10
0.0310230
 20
-0.195258
 30
0.000000
  70
    32
  0
VERTEX
  8
0
  5
7E5E
 10
0.0319088
 20
-0.195162
 30
0.000000
  70
    32
  0
VERTEX
  8
0
  5
7E5F
 10
0.0327897
 20
-0.195062
 30
0.000000
  70
    32
  0
VERTEX
  8
0
  5
7E60
 10
0.0336658
 20
-0.194960
 30
0.000000
  70
    32
  0
VERTEX
  8
0
  5
7E61
 10
0.0345367
 20
-0.194856
 30
0.000000
  70
    32
  0
VERTEX
  8
0
  5
7E62
 10
0.0354025
 20
-0.194749
 30
0.000000
  70
    32
  0
VERTEX
  8
0
  5
7E63
 10
0.0362629
 20
-0.194639
 30
0.000000
  70
    32
  0
VERTEX
  8
0
  5
7E64
 10
0.0371179
 20
-0.194526
 30
0.000000
  70
    32
  0
VERTEX
  8
0
  5
7E65
 10
0.0379672
 20
-0.194411
 30
0.000000
  70
    32
  0
VERTEX
  8
0
  5
7E66
 10
0.0388109
 20
-0.194293
 30
0.000000
  70
    32
  0
VERTEX
  8
0
  5
7E67
 10
0.0396487
 20
-0.194173
 30
0.000000
  70
    32
  0
VERTEX
  8
0
  5
7E68
 10
0.0404805
 20
-0.194050
 30
0.000000
  70
    32
  0
VERTEX
  8
0
  5
7E69
 10
0.0413063
 20
-0.193924
 30
0.000000
  70
    32
  0
VERTEX
  8
0
  5
7E6A
 10
0.0421258
 20
-0.193796
 30
0.000000
  70
    32
  0
VERTEX
  8
0
  5
7E6B
 10
0.0429390
 20
-0.193666
 30
0.000000
  70
    32
  0
VERTEX
  8
0
  5
7E6C
 10
0.0437457
 20
-0.193533
 30
0.000000
  70
    32
  0
VERTEX
  8
0
  5
7E6D
 10
0.0445458
 20
-0.193397
 30
0.000000
  70
    32
  0
VERTEX
  8
0
  5
7E6E
 10
0.0453392
 20
-0.193260
 30
0.000000
  70
    32
  0
VERTEX
  8
0
  5
7E6F
 10
0.0461258
 20
-0.193119
 30
0.000000
  70
    32
  0
VERTEX
  8
0
  5
7E70
 10
0.0469055
 20
-0.192977
 30
0.000000
  70
    32
  0
VERTEX
  8
0
  5
7E71
 10
0.0476780
 20
-0.192831
 30
0.000000
  70
    32
  0
VERTEX
  8
0
  5
7E72
 10
0.0484434
 20
-0.192684
 30
0.000000
  70
    32
  0
VERTEX
  8
0
  5
7E73
 10
0.0492015
 20
-0.192534
 30
0.000000
  70
    32
  0
VERTEX
  8
0
  5
7E74
 10
0.0499522
 20
-0.192382
 30
0.000000
  70
    32
  0
VERTEX
  8
0
  5
7E75
 10
0.0506954
 20
-0.192228
 30
0.000000
  70
    32
  0
VERTEX
  8
0
  5
7E76
 10
0.0514309
 20
-0.192071
 30
0.000000
  70
    32
  0
VERTEX
  8
0
  5
7E77
 10
0.0521587
 20
-0.191912
 30
0.000000
  70
    32
  0
VERTEX
  8
0
  5
7E78
 10
0.0528787
 20
-0.191751
 30
0.000000
  70
    32
  0
VERTEX
  8
0
  5
7E79
 10
0.0535906
 20
-0.191588
 30
0.000000
  70
    32
  0
VERTEX
  8
0
  5
7E7A
 10
0.0542945
 20
-0.191422
 30
0.000000
  70
    32
  0
VERTEX
  8
0
  5
7E7B
 10
0.0549903
 20
-0.191255
 30
0.000000
  70
    32
  0
VERTEX
  8
0
  5
7E7C
 10
0.0556777
 20
-0.191085
 30
0.000000
  70
    32
  0
VERTEX
  8
0
  5
7E7D
 10
0.0563568
 20
-0.190913
 30
0.000000
  70
    32
  0
VERTEX
  8
0
  5
7E7E
 10
0.0570273
 20
-0.190739
 30
0.000000
  70
    32
  0
VERTEX
  8
0
  5
7E7F
 10
0.0576893
 20
-0.190563
 30
0.000000
  70
    32
  0
VERTEX
  8
0
  5
7E80
 10
0.0583426
 20
-0.190385
 30
0.000000
  70
    32
  0
VERTEX
  8
0
  5
7E81
 10
0.0589871
 20
-0.190205
 30
0.000000
  70
    32
  0
VERTEX
  8
0
  5
7E82
 10
0.0596227
 20
-0.190023
 30
0.000000
  70
    32
  0
VERTEX
  8
0
  5
7E83
 10
0.0602494
 20
-0.189839
 30
0.000000
  70
    32
  0
VERTEX
  8
0
  5
7E84
 10
0.0608670
 20
-0.189653
 30
0.000000
  70
    32
  0
VERTEX
  8
0
  5
7E85
 10
0.0614754
 20
-0.189466
 30
0.000000
  70
    32
  0
VERTEX
  8
0
  5
7E86
 10
0.0620745
 20
-0.189276
 30
0.000000
  70
    32
  0
VERTEX
  8
0
  5
7E87
 10
0.0626643
 20
-0.189085
 30
0.000000
  70
    32
  0
VERTEX
  8
0
  5
7E88
 10
0.0632447
 20
-0.188892
 30
0.000000
  70
    32
  0
VERTEX
  8
0
  5
7E89
 10
0.0638155
 20
-0.188697
 30
0.000000
  70
    32
  0
VERTEX
  8
0
  5
7E8A
 10
0.0643768
 20
-0.188500
 30
0.000000
  70
    32
  0
VERTEX
  8
0
  5
7E8B
 10
0.0649283
 20
-0.188302
 30
0.000000
  70
    32
  0
VERTEX
  8
0
  5
7E8C
 10
0.0654700
 20
-0.188102
 30
0.000000
  70
    32
  0
VERTEX
  8
0
  5
7E8D
 10
0.0660019
 20
-0.187900
 30
0.000000
  70
    32
  0
VERTEX
  8
0
  5
7E8E
 10
0.0665239
 20
-0.187697
 30
0.000000
  70
    32
  0
VERTEX
  8
0
  5
7E8F
 10
0.0670358
 20
-0.187492
 30
0.000000
  70
    32
  0
VERTEX
  8
0
  5
7E90
 10
0.0675377
 20
-0.187285
 30
0.000000
  70
    32
  0
VERTEX
  8
0
  5
7E91
 10
0.0680294
 20
-0.187078
 30
0.000000
  70
    32
  0
VERTEX
  8
0
  5
7E92
 10
0.0685108
 20
-0.186868
 30
0.000000
  70
    32
  0
VERTEX
  8
0
  5
7E93
 10
0.0689819
 20
-0.186657
 30
0.000000
  70
    32
  0
VERTEX
  8
0
  5
7E94
 10
0.0694426
 20
-0.186445
 30
0.000000
  70
    32
  0
VERTEX
  8
0
  5
7E95
 10
0.0698929
 20
-0.186231
 30
0.000000
  70
    32
  0
VERTEX
  8
0
  5
7E96
 10
0.0703326
 20
-0.186016
 30
0.000000
  70
    32
  0
VERTEX
  8
0
  5
7E97
 10
0.0707618
 20
-0.185800
 30
0.000000
  70
    32
  0
VERTEX
  8
0
  5
7E98
 10
0.0711803
 20
-0.185582
 30
0.000000
  70
    32
  0
VERTEX
  8
0
  5
7E99
 10
0.0715880
 20
-0.185363
 30
0.000000
  70
    32
  0
VERTEX
  8
0
  5
7E9A
 10
0.0719850
 20
-0.185143
 30
0.000000
  70
    32
  0
VERTEX
  8
0
  5
7E9B
 10
0.0723712
 20
-0.184921
 30
0.000000
  70
    32
  0
VERTEX
  8
0
  5
7E9C
 10
0.0727464
 20
-0.184698
 30
0.000000
  70
    32
  0
VERTEX
  8
0
  5
7E9D
 10
0.0731107
 20
-0.184475
 30
0.000000
  70
    32
  0
VERTEX
  8
0
  5
7E9E
 10
0.0734640
 20
-0.184250
 30
0.000000
  70
    32
  0
VERTEX
  8
0
  5
7E9F
 10
0.0738062
 20
-0.184024
 30
0.000000
  70
    32
  0
VERTEX
  8
0
  5
7EA0
 10
0.0741373
 20
-0.183797
 30
0.000000
  70
    32
  0
VERTEX
  8
0
  5
7EA1
 10
0.0744573
 20
-0.183569
 30
0.000000
  70
    32
  0
VERTEX
  8
0
  5
7EA2
 10
0.0747660
 20
-0.183340
 30
0.000000
  70
    32
  0
VERTEX
  8
0
  5
7EA3
 10
0.0750635
 20
-0.183110
 30
0.000000
  70
    32
  0
VERTEX
  8
0
  5
7EA4
 10
0.0753496
 20
-0.182880
 30
0.000000
  70
    32
  0
VERTEX
  8
0
  5
7EA5
 10
0.0756245
 20
-0.182648
 30
0.000000
  70
    32
  0
VERTEX
  8
0
  5
7EA6
 10
0.0758879
 20
-0.182416
 30
0.000000
  70
    32
  0
VERTEX
  8
0
  5
7EA7
 10
0.0761399
 20
-0.182182
 30
0.000000
  70
    32
  0
VERTEX
  8
0
  5
7EA8
 10
0.0763804
 20
-0.181948
 30
0.000000
  70
    32
  0
VERTEX
  8
0
  5
7EA9
 10
0.0766094
 20
-0.181714
 30
0.000000
  70
    32
  0
VERTEX
  8
0
  5
7EAA
 10
0.0768269
 20
-0.181478
 30
0.000000
  70
    32
  0
VERTEX
  8
0
  5
7EAB
 10
0.0770329
 20
-0.181242
 30
0.000000
  70
    32
  0
VERTEX
  8
0
  5
7EAC
 10
0.0772272
 20
-0.181006
 30
0.000000
  70
    32
  0
VERTEX
  8
0
  5
7EAD
 10
0.0774099
 20
-0.180769
 30
0.000000
  70
    32
  0
VERTEX
  8
0
  5
7EAE
 10
0.0775809
 20
-0.180531
 30
0.000000
  70
    32
  0
VERTEX
  8
0
  5
7EAF
 10
0.0777403
 20
-0.180292
 30
0.000000
  70
    32
  0
VERTEX
  8
0
  5
7EB0
 10
0.0778879
 20
-0.180054
 30
0.000000
  70
    32
  0
VERTEX
  8
0
  5
7EB1
 10
0.0780238
 20
-0.179815
 30
0.000000
  70
    32
  0
VERTEX
  8
0
  5
7EB2
 10
0.0781480
 20
-0.179575
 30
0.000000
  70
    32
  0
VERTEX
  8
0
  5
7EB3
 10
0.0782604
 20
-0.179335
 30
0.000000
  70
    32
  0
VERTEX
  8
0
  5
7EB4
 10
0.0783610
 20
-0.179095
 30
0.000000
  70
    32
  0
VERTEX
  8
0
  5
7EB5
 10
0.0784498
 20
-0.178854
 30
0.000000
  70
    32
  0
VERTEX
  8
0
  5
7EB6
 10
0.0785268
 20
-0.178613
 30
0.000000
  70
    32
  0
VERTEX
  8
0
  5
7EB7
 10
0.0785920
 20
-0.178372
 30
0.000000
  70
    32
  0
VERTEX
  8
0
  5
7EB8
 10
0.0786453
 20
-0.178131
 30
0.000000
  70
    32
  0
VERTEX
  8
0
  5
7EB9
 10
0.0786868
 20
-0.177890
 30
0.000000
  70
    32
  0
VERTEX
  8
0
  5
7EBA
 10
0.0787164
 20
-0.177648
 30
0.000000
  70
    32
  0
VERTEX
  8
0
  5
7EBB
 10
0.0787342
 20
-0.177407
 30
0.000000
  70
    32
  0
VERTEX
  8
0
  5
7EBC
 10
0.0787402
 20
-0.177165
 30
0.000000
  70
    32
  0
SEQEND
  8
0
  5
7EBD
  0
LINE
  5
74A1
  8
0
 10
0.0
 20
-0.1968503949999983
 30
0.0
 11
0.1771653555000228
 21
-0.1968503949999983
 31
0.0
  0
LINE
  5
74A2
  8
0
 10
0.0
 20
0.1377952764999997
 30
0.0
 11
0.0984251974999992
 21
0.1377952764999997
 31
0.0
  0
LINE
  5
74A3
  8
0
 10
0.0
 20
0.0
 30
0.0
 11
0.0984251974999992
 21
0.0
 31
0.0
  0
LINE
  5
74A4
  8
0
 10
0.0
 20
-0.0393700790000085
 30
0.0
 11
0.1574803159999973
 21
-0.0393700790000085
 31
0.0
  0
LINE
  5
74A5
  8
0
 10
0.0787401580000022
 20
0.1574803160000036
 30
0.0
 11
0.0984251974999992
 21
0.1377952764999997
 31
0.0
  0
LINE
  5
74A6
  8
0
 10
0.0984251974999992
 20
0.0
 30
0.0
 11
0.0984251974999992
 21
0.1377952764999997
 31
0.0
  0
LINE
  5
74A7
  8
0
 10
0.0826771659000016
 20
0.0
 30
0.0
 11
0.0826771659000016
 21
0.1535433080999975
 31
0.0
  0
LINE
  5
755D
  8
0
 10
0.1771653555000228
 20
-0.1968503949999983
 30
0.0
 11
0.1771653555000228
 21
-0.5708661455000055
 31
0.0
  0
LINE
  5
7561
  8
0
 10
0.3444881912500222
 20
-0.6692913429999976
 30
0.0
 11
0.3444881912500222
 21
-0.7086614220000059
 31
0.0
  0
LINE
  5
7563
  8
0
 10
0.0000000000000213
 20
-0.5708661455000055
 30
0.0
 11
0.1771653555000228
 21
-0.5708661455000055
 31
0.0
  0
LINE
  5
7564
  8
0
 10
0.0
 20
-0.9645669355000023
 30
0.0
 11
0.3051181122500211
 21
-0.9645669355000023
 31
0.0
  0
LINE
  5
756B
  8
0
 10
0.1771653555000228
 20
-0.5708661455000055
 30
0.0
 11
0.3051181122500211
 21
-0.6692913429999976
 31
0.0
  0
LINE
  5
758D
  8
0
 10
0.1913243174721231
 20
-0.8228346510999955
 30
0.0
 11
0.0000000000000213
 21
-0.8228346510999955
 31
0.0
  0
LINE
  5
758E
  8
0
 10
0.1913243174721231
 20
-0.8307086668999943
 30
0.0
 11
0.0000000000000213
 21
-0.8307086669000086
 31
0.0
  0
LINE
  5
7591
  8
0
 10
0.3051181122500211
 20
-0.7086614220000059
 30
0.0
 11
0.1925756452173743
 21
-0.8212038890326454
 31
0.0
  0
LINE
  5
7592
  8
0
 10
0.1925756452173743
 20
-0.8323394289673586
 30
0.0
 11
0.3051181122500211
 21
-0.9645669355000023
 31
0.0
  0
ARC
  5
7594
  8
0
 10
0.1981434151847239
 20
-0.8267716590000021
 30
0.0
 40
0.0078740158
 50
135.0000000000002
 51
225.00000000000011
  0
LINE
  5
7598
  8
0
 10
0.0000000000000213
 20
-0.6692913429999976
 30
0.0
 11
0.3444881912500222
 21
-0.6692913429999976
 31
0.0
  0
LINE
  5
7599
  8
0
 10
0.0000000000000213
 20
-0.7086614220000059
 30
0.0
 11
0.3444881912500222
 21
-0.7086614220000059
 31
0.0
  0
LINE
  5
78B4
  8
0
 10
0.0
 20
0.0
 30
0.0
 11
0.1299212607000015
 21
0.0
 31
0.0
  0
LINE
  5
78B5
  8
0
 10
0.1299212607000015
 20
0.0
 30
0.0
 11
0.1299212607000015
 21
-0.0393700790000085
 31
0.0
  0
POINT
  5
7BE5
  8
0
 10
0.3051181122500211
 20
-0.9645669355000023
 30
0.0
  0
POINT
  5
7BE6
  8
0
 10
0.1771653555000228
 20
-0.1968503949999983
 30
0.0
  0
LINE
  5
7BF1
  8
0
 10
-0.1771653554998878
 20
-0.19685039499997
 30
0.0
 11
-0.1771653554999517
 21
-0.5708661454999771
 31
0.0
  0
LINE
  5
7BF2
  8
0
 10
0.0
 20
-0.9645669355000023
 30
0.0
 11
-0.3051181122500211
 21
-0.9645669354999455
 31
0.0
  0
LINE
  5
7BF3
  8
0
 10
0.0000000000000213
 20
-0.7086614220000059
 30
0.0
 11
-0.3444881912499795
 21
-0.708661421999949
 31
0.0
  0
LINE
  5
7BF4
  8
0
 10
0.0000000000000284
 20
-0.6692913429999976
 30
0.0
 11
-0.3444881912499724
 21
-0.6692913429999408
 31
0.0
  0
LINE
  5
7BF5
  8
0
 10
-0.1913243174721018
 20
-0.8307086668999659
 30
0.0
 11
0.0
 21
-0.8307086669000086
 31
0.0
  0
LINE
  5
7BF6
  8
0
 10
-0.1913243174720946
 20
-0.8228346510999671
 30
0.0
 11
0.0
 21
-0.8228346510999955
 31
0.0
  0
LINE
  5
7BF7
  8
0
 10
0.0000000000000497
 20
-0.5708661455000055
 30
0.0
 11
-0.1771653554999517
 21
-0.5708661454999771
 31
0.0
  0
LINE
  5
7BF8
  8
0
 10
-0.3051181122499784
 20
-0.708661421999949
 30
0.0
 11
-0.1925756452173459
 21
-0.8212038890326169
 31
0.0
  0
LINE
  5
7BF9
  8
0
 10
-0.1925756452173459
 20
-0.8323394289673161
 30
0.0
 11
-0.3051181122500211
 21
-0.9645669354999455
 31
0.0
  0
POINT
  5
7BFA
  8
0
 10
-0.3051181122500211
 20
-0.9645669354999455
 30
0.0
  0
ARC
  5
7BFC
  8
0
 10
-0.1981434151846955
 20
-0.8267716589999736
 30
0.0
 40
0.0078740158
 50
314.99999999998983
 51
44.999999999989768
  0
LINE
  5
7BFD
  8
0
 10
-0.1771653554999517
 20
-0.5708661454999771
 30
0.0
 11
-0.3051181122499713
 21
-0.669291342999955
 31
0.0
  0
LINE
  5
7BFE
  8
0
 10
-0.3444881912499724
 20
-0.6692913429999408
 30
0.0
 11
-0.3444881912499795
 21
-0.708661421999949
 31
0.0
  0
LINE
  5
7BFF
  8
0
 10
0.0000000000001634
 20
-0.0393700790000085
 30
0.0
 11
-0.157480315999841
 21
-0.03937007899998
 31
0.0
  0
LINE
  5
7C00
  8
0
 10
0.000000000000135
 20
-0.1968503949999983
 30
0.0
 11
-0.1771653554998878
 21
-0.19685039499997
 31
0.0
  0
POLYLINE
  5
7C01
  8
0
 10
-0.0787401579998623
 20
-0.177165355499987
 30
0.0
 66
     1
 70
     8
  0
VERTEX
  8
0
  5
7EBE
 10
-0.0787402
 20
-0.177165
 30
0.000000
  70
    32
  0
VERTEX
  8
0
  5
7EBF
 10
-0.0787520
 20
-0.177648
 30
0.000000
  70
    32
  0
VERTEX
  8
0
  5
7EC0
 10
-0.0787876
 20
-0.178131
 30
0.000000
  70
    32
  0
VERTEX
  8
0
  5
7EC1
 10
-0.0788468
 20
-0.178613
 30
0.000000
  70
    32
  0
VERTEX
  8
0
  5
7EC2
 10
-0.0789297
 20
-0.179095
 30
0.000000
  70
    32
  0
VERTEX
  8
0
  5
7EC3
 10
-0.0790362
 20
-0.179575
 30
0.000000
  70
    32
  0
VERTEX
  8
0
  5
7EC4
 10
-0.0791663
 20
-0.180054
 30
0.000000
  70
    32
  0
VERTEX
  8
0
  5
7EC5
 10
-0.0793198
 20
-0.180531
 30
0.000000
  70
    32
  0
VERTEX
  8
0
  5
7EC6
 10
-0.0794966
 20
-0.181006
 30
0.000000
  70
    32
  0
VERTEX
  8
0
  5
7EC7
 10
-0.0796968
 20
-0.181478
 30
0.000000
  70
    32
  0
VERTEX
  8
0
  5
7EC8
 10
-0.0799200
 20
-0.181948
 30
0.000000
  70
    32
  0
VERTEX
  8
0
  5
7EC9
 10
-0.0801663
 20
-0.182416
 30
0.000000
  70
    32
  0
VERTEX
  8
0
  5
7ECA
 10
-0.0804354
 20
-0.182880
 30
0.000000
  70
    32
  0
VERTEX
  8
0
  5
7ECB
 10
-0.0807272
 20
-0.183340
 30
0.000000
  70
    32
  0
VERTEX
  8
0
  5
7ECC
 10
-0.0810416
 20
-0.183797
 30
0.000000
  70
    32
  0
VERTEX
  8
0
  5
7ECD
 10
-0.0813782
 20
-0.184250
 30
0.000000
  70
    32
  0
VERTEX
  8
0
  5
7ECE
 10
-0.0817370
 20
-0.184698
 30
0.000000
  70
    32
  0
VERTEX
  8
0
  5
7ECF
 10
-0.0821177
 20
-0.185143
 30
0.000000
  70
    32
  0
VERTEX
  8
0
  5
7ED0
 10
-0.0825201
 20
-0.185582
 30
0.000000
  70
    32
  0
VERTEX
  8
0
  5
7ED1
 10
-0.0829439
 20
-0.186016
 30
0.000000
  70
    32
  0
VERTEX
  8
0
  5
7ED2
 10
-0.0833889
 20
-0.186445
 30
0.000000
  70
    32
  0
VERTEX
  8
0
  5
7ED3
 10
-0.0838548
 20
-0.186868
 30
0.000000
  70
    32
  0
VERTEX
  8
0
  5
7ED4
 10
-0.0843414
 20
-0.187285
 30
0.000000
  70
    32
  0
VERTEX
  8
0
  5
7ED5
 10
-0.0848483
 20
-0.187697
 30
0.000000
  70
    32
  0
VERTEX
  8
0
  5
7ED6
 10
-0.0853752
 20
-0.188102
 30
0.000000
  70
    32
  0
VERTEX
  8
0
  5
7ED7
 10
-0.0859219
 20
-0.188500
 30
0.000000
  70
    32
  0
VERTEX
  8
0
  5
7ED8
 10
-0.0864879
 20
-0.188892
 30
0.000000
  70
    32
  0
VERTEX
  8
0
  5
7ED9
 10
-0.0870730
 20
-0.189276
 30
0.000000
  70
    32
  0
VERTEX
  8
0
  5
7EDA
 10
-0.0876768
 20
-0.189653
 30
0.000000
  70
    32
  0
VERTEX
  8
0
  5
7EDB
 10
-0.0882989
 20
-0.190023
 30
0.000000
  70
    32
  0
VERTEX
  8
0
  5
7EDC
 10
-0.0889389
 20
-0.190385
 30
0.000000
  70
    32
  0
VERTEX
  8
0
  5
7EDD
 10
-0.0895966
 20
-0.190739
 30
0.000000
  70
    32
  0
VERTEX
  8
0
  5
7EDE
 10
-0.0902714
 20
-0.191085
 30
0.000000
  70
    32
  0
VERTEX
  8
0
  5
7EDF
 10
-0.0909630
 20
-0.191422
 30
0.000000
  70
    32
  0
VERTEX
  8
0
  5
7EE0
 10
-0.0916709
 20
-0.191751
 30
0.000000
  70
    32
  0
VERTEX
  8
0
  5
7EE1
 10
-0.0923948
 20
-0.192071
 30
0.000000
  70
    32
  0
VERTEX
  8
0
  5
7EE2
 10
-0.0931341
 20
-0.192382
 30
0.000000
  70
    32
  0
VERTEX
  8
0
  5
7EE3
 10
-0.0938885
 20
-0.192684
 30
0.000000
  70
    32
  0
VERTEX
  8
0
  5
7EE4
 10
-0.0946575
 20
-0.192977
 30
0.000000
  70
    32
  0
VERTEX
  8
0
  5
7EE5
 10
-0.0954406
 20
-0.193260
 30
0.000000
  70
    32
  0
VERTEX
  8
0
  5
7EE6
 10
-0.0962374
 20
-0.193533
 30
0.000000
  70
    32
  0
VERTEX
  8
0
  5
7EE7
 10
-0.0970473
 20
-0.193796
 30
0.000000
  70
    32
  0
VERTEX
  8
0
  5
7EE8
 10
-0.0978700
 20
-0.194050
 30
0.000000
  70
    32
  0
VERTEX
  8
0
  5
7EE9
 10
-0.0987048
 20
-0.194293
 30
0.000000
  70
    32
  0
VERTEX
  8
0
  5
7EEA
 10
-0.0995513
 20
-0.194526
 30
0.000000
  70
    32
  0
VERTEX
  8
0
  5
7EEB
 10
-0.100409
 20
-0.194749
 30
0.000000
  70
    32
  0
VERTEX
  8
0
  5
7EEC
 10
-0.101277
 20
-0.194960
 30
0.000000
  70
    32
  0
VERTEX
  8
0
  5
7EED
 10
-0.102156
 20
-0.195162
 30
0.000000
  70
    32
  0
VERTEX
  8
0
  5
7EEE
 10
-0.103044
 20
-0.195352
 30
0.000000
  70
    32
  0
VERTEX
  8
0
  5
7EEF
 10
-0.103941
 20
-0.195531
 30
0.000000
  70
    32
  0
VERTEX
  8
0
  5
7EF0
 10
-0.104847
 20
-0.195700
 30
0.000000
  70
    32
  0
VERTEX
  8
0
  5
7EF1
 10
-0.105761
 20
-0.195857
 30
0.000000
  70
    32
  0
VERTEX
  8
0
  5
7EF2
 10
-0.106682
 20
-0.196003
 30
0.000000
  70
    32
  0
VERTEX
  8
0
  5
7EF3
 10
-0.107610
 20
-0.196137
 30
0.000000
  70
    32
  0
VERTEX
  8
0
  5
7EF4
 10
-0.108544
 20
-0.196260
 30
0.000000
  70
    32
  0
VERTEX
  8
0
  5
7EF5
 10
-0.109484
 20
-0.196372
 30
0.000000
  70
    32
  0
VERTEX
  8
0
  5
7EF6
 10
-0.110430
 20
-0.196472
 30
0.000000
  70
    32
  0
VERTEX
  8
0
  5
7EF7
 10
-0.111379
 20
-0.196561
 30
0.000000
  70
    32
  0
VERTEX
  8
0
  5
7EF8
 10
-0.112333
 20
-0.196637
 30
0.000000
  70
    32
  0
VERTEX
  8
0
  5
7EF9
 10
-0.113291
 20
-0.196702
 30
0.000000
  70
    32
  0
VERTEX
  8
0
  5
7EFA
 10
-0.114251
 20
-0.196756
 30
0.000000
  70
    32
  0
VERTEX
  8
0
  5
7EFB
 10
-0.115214
 20
-0.196797
 30
0.000000
  70
    32
  0
VERTEX
  8
0
  5
7EFC
 10
-0.116178
 20
-0.196827
 30
0.000000
  70
    32
  0
VERTEX
  8
0
  5
7EFD
 10
-0.117144
 20
-0.196844
 30
0.000000
  70
    32
  0
VERTEX
  8
0
  5
7EFE
 10
-0.118110
 20
-0.196850
 30
0.000000
  70
    32
  0
VERTEX
  8
0
  5
7EFF
 10
-0.119076
 20
-0.196844
 30
0.000000
  70
    32
  0
VERTEX
  8
0
  5
7F00
 10
-0.120042
 20
-0.196827
 30
0.000000
  70
    32
  0
VERTEX
  8
0
  5
7F01
 10
-0.121006
 20
-0.196797
 30
0.000000
  70
    32
  0
VERTEX
  8
0
  5
7F02
 10
-0.121969
 20
-0.196756
 30
0.000000
  70
    32
  0
VERTEX
  8
0
  5
7F03
 10
-0.122930
 20
-0.196702
 30
0.000000
  70
    32
  0
VERTEX
  8
0
  5
7F04
 10
-0.123887
 20
-0.196637
 30
0.000000
  70
    32
  0
VERTEX
  8
0
  5
7F05
 10
-0.124841
 20
-0.196561
 30
0.000000
  70
    32
  0
VERTEX
  8
0
  5
7F06
 10
-0.125791
 20
-0.196472
 30
0.000000
  70
    32
  0
VERTEX
  8
0
  5
7F07
 10
-0.126736
 20
-0.196372
 30
0.000000
  70
    32
  0
VERTEX
  8
0
  5
7F08
 10
-0.127676
 20
-0.196260
 30
0.000000
  70
    32
  0
VERTEX
  8
0
  5
7F09
 10
-0.128611
 20
-0.196137
 30
0.000000
  70
    32
  0
VERTEX
  8
0
  5
7F0A
 10
-0.129539
 20
-0.196003
 30
0.000000
  70
    32
  0
VERTEX
  8
0
  5
7F0B
 10
-0.130460
 20
-0.195857
 30
0.000000
  70
    32
  0
VERTEX
  8
0
  5
7F0C
 10
-0.131374
 20
-0.195700
 30
0.000000
  70
    32
  0
VERTEX
  8
0
  5
7F0D
 10
-0.132279
 20
-0.195531
 30
0.000000
  70
    32
  0
VERTEX
  8
0
  5
7F0E
 10
-0.133177
 20
-0.195352
 30
0.000000
  70
    32
  0
VERTEX
  8
0
  5
7F0F
 10
-0.134065
 20
-0.195162
 30
0.000000
  70
    32
  0
VERTEX
  8
0
  5
7F10
 10
-0.134943
 20
-0.194960
 30
0.000000
  70
    32
  0
VERTEX
  8
0
  5
7F11
 10
-0.135811
 20
-0.194749
 30
0.000000
  70
    32
  0
VERTEX
  8
0
  5
7F12
 10
-0.136669
 20
-0.194526
 30
0.000000
  70
    32
  0
VERTEX
  8
0
  5
7F13
 10
-0.137516
 20
-0.194293
 30
0.000000
  70
    32
  0
VERTEX
  8
0
  5
7F14
 10
-0.138351
 20
-0.194050
 30
0.000000
  70
    32
  0
VERTEX
  8
0
  5
7F15
 10
-0.139173
 20
-0.193796
 30
0.000000
  70
    32
  0
VERTEX
  8
0
  5
7F16
 10
-0.139983
 20
-0.193533
 30
0.000000
  70
    32
  0
VERTEX
  8
0
  5
7F17
 10
-0.140780
 20
-0.193260
 30
0.000000
  70
    32
  0
VERTEX
  8
0
  5
7F18
 10
-0.141563
 20
-0.192977
 30
0.000000
  70
    32
  0
VERTEX
  8
0
  5
7F19
 10
-0.142332
 20
-0.192684
 30
0.000000
  70
    32
  0
VERTEX
  8
0
  5
7F1A
 10
-0.143086
 20
-0.192382
 30
0.000000
  70
    32
  0
VERTEX
  8
0
  5
7F1B
 10
-0.143826
 20
-0.192071
 30
0.000000
  70
    32
  0
VERTEX
  8
0
  5
7F1C
 10
-0.144550
 20
-0.191751
 30
0.000000
  70
    32
  0
VERTEX
  8
0
  5
7F1D
 10
-0.145258
 20
-0.191422
 30
0.000000
  70
    32
  0
VERTEX
  8
0
  5
7F1E
 10
-0.145949
 20
-0.191085
 30
0.000000
  70
    32
  0
VERTEX
  8
0
  5
7F1F
 10
-0.146624
 20
-0.190739
 30
0.000000
  70
    32
  0
VERTEX
  8
0
  5
7F20
 10
-0.147282
 20
-0.190385
 30
0.000000
  70
    32
  0
VERTEX
  8
0
  5
7F21
 10
-0.147922
 20
-0.190023
 30
0.000000
  70
    32
  0
VERTEX
  8
0
  5
7F22
 10
-0.148544
 20
-0.189653
 30
0.000000
  70
    32
  0
VERTEX
  8
0
  5
7F23
 10
-0.149147
 20
-0.189276
 30
0.000000
  70
    32
  0
VERTEX
  8
0
  5
7F24
 10
-0.149733
 20
-0.188892
 30
0.000000
  70
    32
  0
VERTEX
  8
0
  5
7F25
 10
-0.150299
 20
-0.188500
 30
0.000000
  70
    32
  0
VERTEX
  8
0
  5
7F26
 10
-0.150845
 20
-0.188102
 30
0.000000
  70
    32
  0
VERTEX
  8
0
  5
7F27
 10
-0.151372
 20
-0.187697
 30
0.000000
  70
    32
  0
VERTEX
  8
0
  5
7F28
 10
-0.151879
 20
-0.187285
 30
0.000000
  70
    32
  0
VERTEX
  8
0
  5
7F29
 10
-0.152366
 20
-0.186868
 30
0.000000
  70
    32
  0
VERTEX
  8
0
  5
7F2A
 10
-0.152832
 20
-0.186445
 30
0.000000
  70
    32
  0
VERTEX
  8
0
  5
7F2B
 10
-0.153277
 20
-0.186016
 30
0.000000
  70
    32
  0
VERTEX
  8
0
  5
7F2C
 10
-0.153700
 20
-0.185582
 30
0.000000
  70
    32
  0
VERTEX
  8
0
  5
7F2D
 10
-0.154103
 20
-0.185143
 30
0.000000
  70
    32
  0
VERTEX
  8
0
  5
7F2E
 10
-0.154483
 20
-0.184698
 30
0.000000
  70
    32
  0
VERTEX
  8
0
  5
7F2F
 10
-0.154842
 20
-0.184250
 30
0.000000
  70
    32
  0
VERTEX
  8
0
  5
7F30
 10
-0.155179
 20
-0.183797
 30
0.000000
  70
    32
  0
VERTEX
  8
0
  5
7F31
 10
-0.155493
 20
-0.183340
 30
0.000000
  70
    32
  0
VERTEX
  8
0
  5
7F32
 10
-0.155785
 20
-0.182880
 30
0.000000
  70
    32
  0
VERTEX
  8
0
  5
7F33
 10
-0.156054
 20
-0.182416
 30
0.000000
  70
    32
  0
VERTEX
  8
0
  5
7F34
 10
-0.156300
 20
-0.181948
 30
0.000000
  70
    32
  0
VERTEX
  8
0
  5
7F35
 10
-0.156524
 20
-0.181478
 30
0.000000
  70
    32
  0
VERTEX
  8
0
  5
7F36
 10
-0.156724
 20
-0.181006
 30
0.000000
  70
    32
  0
VERTEX
  8
0
  5
7F37
 10
-0.156901
 20
-0.180531
 30
0.000000
  70
    32
  0
VERTEX
  8
0
  5
7F38
 10
-0.157054
 20
-0.180054
 30
0.000000
  70
    32
  0
VERTEX
  8
0
  5
7F39
 10
-0.157184
 20
-0.179575
 30
0.000000
  70
    32
  0
VERTEX
  8
0
  5
7F3A
 10
-0.157291
 20
-0.179095
 30
0.000000
  70
    32
  0
VERTEX
  8
0
  5
7F3B
 10
-0.157374
 20
-0.178613
 30
0.000000
  70
    32
  0
VERTEX
  8
0
  5
7F3C
 10
-0.157433
 20
-0.178131
 30
0.000000
  70
    32
  0
VERTEX
  8
0
  5
7F3D
 10
-0.157468
 20
-0.177648
 30
0.000000
  70
    32
  0
VERTEX
  8
0
  5
7F3E
 10
-0.157480
 20
-0.177165
 30
0.000000
  70
    32
  0
SEQEND
  8
0
  5
7F3F
  0
LINE
  5
7C02
  8
0
 10
-0.0787401579998672
 20
-0.1771653554999942
 30
0.0
 11
-0.0787401579998388
 21
-0.039370078999994
 31
0.0
  0
POLYLINE
  5
7C03
  8
0
 10
0.000000000000132
 20
-0.1968503949999965
 30
0.0
 66
     1
 70
     8
  0
VERTEX
  8
0
  5
7F40
 10
1.32032e-013
 20
-0.196850
 30
0.000000
  70
    32
  0
VERTEX
  8
0
  5
7F41
 10
-0.000966263
 20
-0.196849
 30
0.000000
  70
    32
  0
VERTEX
  8
0
  5
7F42
 10
-0.00193238
 20
-0.196844
 30
0.000000
  70
    32
  0
VERTEX
  8
0
  5
7F43
 10
-0.00289821
 20
-0.196837
 30
0.000000
  70
    32
  0
VERTEX
  8
0
  5
7F44
 10
-0.00386360
 20
-0.196827
 30
0.000000
  70
    32
  0
VERTEX
  8
0
  5
7F45
 10
-0.00482840
 20
-0.196813
 30
0.000000
  70
    32
  0
VERTEX
  8
0
  5
7F46
 10
-0.00579249
 20
-0.196797
 30
0.000000
  70
    32
  0
VERTEX
  8
0
  5
7F47
 10
-0.00675569
 20
-0.196778
 30
0.000000
  70
    32
  0
VERTEX
  8
0
  5
7F48
 10
-0.00771789
 20
-0.196756
 30
0.000000
  70
    32
  0
VERTEX
  8
0
  5
7F49
 10
-0.00867891
 20
-0.196730
 30
0.000000
  70
    32
  0
VERTEX
  8
0
  5
7F4A
 10
-0.00963864
 20
-0.196702
 30
0.000000
  70
    32
  0
VERTEX
  8
0
  5
7F4B
 10
-0.0105969
 20
-0.196671
 30
0.000000
  70
    32
  0
VERTEX
  8
0
  5
7F4C
 10
-0.0115536
 20
-0.196637
 30
0.000000
  70
    32
  0
VERTEX
  8
0
  5
7F4D
 10
-0.0125085
 20
-0.196600
 30
0.000000
  70
    32
  0
VERTEX
  8
0
  5
7F4E
 10
-0.0134616
 20
-0.196561
 30
0.000000
  70
    32
  0
VERTEX
  8
0
  5
7F4F
 10
-0.0144126
 20
-0.196518
 30
0.000000
  70
    32
  0
VERTEX
  8
0
  5
7F50
 10
-0.0153614
 20
-0.196472
 30
0.000000
  70
    32
  0
VERTEX
  8
0
  5
7F51
 10
-0.0163080
 20
-0.196424
 30
0.000000
  70
    32
  0
VERTEX
  8
0
  5
7F52
 10
-0.0172521
 20
-0.196372
 30
0.000000
  70
    32
  0
VERTEX
  8
0
  5
7F53
 10
-0.0181936
 20
-0.196318
 30
0.000000
  70
    32
  0
VERTEX
  8
0
  5
7F54
 10
-0.0191323
 20
-0.196260
 30
0.000000
  70
    32
  0
VERTEX
  8
0
  5
7F55
 10
-0.0200682
 20
-0.196200
 30
0.000000
  70
    32
  0
VERTEX
  8
0
  5
7F56
 10
-0.0210010
 20
-0.196137
 30
0.000000
  70
    32
  0
VERTEX
  8
0
  5
7F57
 10
-0.0219307
 20
-0.196071
 30
0.000000
  70
    32
  0
VERTEX
  8
0
  5
7F58
 10
-0.0228571
 20
-0.196003
 30
0.000000
  70
    32
  0
VERTEX
  8
0
  5
7F59
 10
-0.0237800
 20
-0.195931
 30
0.000000
  70
    32
  0
VERTEX
  8
0
  5
7F5A
 10
-0.0246993
 20
-0.195857
 30
0.000000
  70
    32
  0
VERTEX
  8
0
  5
7F5B
 10
-0.0256150
 20
-0.195780
 30
0.000000
  70
    32
  0
VERTEX
  8
0
  5
7F5C
 10
-0.0265268
 20
-0.195700
 30
0.000000
  70
    32
  0
VERTEX
  8
0
  5
7F5D
 10
-0.0274345
 20
-0.195617
 30
0.000000
  70
    32
  0
VERTEX
  8
0
  5
7F5E
 10
-0.0283382
 20
-0.195531
 30
0.000000
  70
    32
  0
VERTEX
  8
0
  5
7F5F
 10
-0.0292376
 20
-0.195443
 30
0.000000
  70
    32
  0
VERTEX
  8
0
  5
7F60
 10
-0.0301326
 20
-0.195352
 30
0.000000
  70
    32
  0
VERTEX
  8
0
  5
7F61
 10
-0.0310230
 20
-0.195258
 30
0.000000
  70
    32
  0
VERTEX
  8
0
  5
7F62
 10
-0.0319088
 20
-0.195162
 30
0.000000
  70
    32
  0
VERTEX
  8
0
  5
7F63
 10
-0.0327897
 20
-0.195062
 30
0.000000
  70
    32
  0
VERTEX
  8
0
  5
7F64
 10
-0.0336658
 20
-0.194960
 30
0.000000
  70
    32
  0
VERTEX
  8
0
  5
7F65
 10
-0.0345367
 20
-0.194856
 30
0.000000
  70
    32
  0
VERTEX
  8
0
  5
7F66
 10
-0.0354025
 20
-0.194749
 30
0.000000
  70
    32
  0
VERTEX
  8
0
  5
7F67
 10
-0.0362629
 20
-0.194639
 30
0.000000
  70
    32
  0
VERTEX
  8
0
  5
7F68
 10
-0.0371179
 20
-0.194526
 30
0.000000
  70
    32
  0
VERTEX
  8
0
  5
7F69
 10
-0.0379672
 20
-0.194411
 30
0.000000
  70
    32
  0
VERTEX
  8
0
  5
7F6A
 10
-0.0388109
 20
-0.194293
 30
0.000000
  70
    32
  0
VERTEX
  8
0
  5
7F6B
 10
-0.0396487
 20
-0.194173
 30
0.000000
  70
    32
  0
VERTEX
  8
0
  5
7F6C
 10
-0.0404805
 20
-0.194050
 30
0.000000
  70
    32
  0
VERTEX
  8
0
  5
7F6D
 10
-0.0413063
 20
-0.193924
 30
0.000000
  70
    32
  0
VERTEX
  8
0
  5
7F6E
 10
-0.0421258
 20
-0.193796
 30
0.000000
  70
    32
  0
VERTEX
  8
0
  5
7F6F
 10
-0.0429390
 20
-0.193666
 30
0.000000
  70
    32
  0
VERTEX
  8
0
  5
7F70
 10
-0.0437457
 20
-0.193533
 30
0.000000
  70
    32
  0
VERTEX
  8
0
  5
7F71
 10
-0.0445458
 20
-0.193397
 30
0.000000
  70
    32
  0
VERTEX
  8
0
  5
7F72
 10
-0.0453392
 20
-0.193260
 30
0.000000
  70
    32
  0
VERTEX
  8
0
  5
7F73
 10
-0.0461258
 20
-0.193119
 30
0.000000
  70
    32
  0
VERTEX
  8
0
  5
7F74
 10
-0.0469055
 20
-0.192977
 30
0.000000
  70
    32
  0
VERTEX
  8
0
  5
7F75
 10
-0.0476780
 20
-0.192831
 30
0.000000
  70
    32
  0
VERTEX
  8
0
  5
7F76
 10
-0.0484434
 20
-0.192684
 30
0.000000
  70
    32
  0
VERTEX
  8
0
  5
7F77
 10
-0.0492015
 20
-0.192534
 30
0.000000
  70
    32
  0
VERTEX
  8
0
  5
7F78
 10
-0.0499522
 20
-0.192382
 30
0.000000
  70
    32
  0
VERTEX
  8
0
  5
7F79
 10
-0.0506954
 20
-0.192228
 30
0.000000
  70
    32
  0
VERTEX
  8
0
  5
7F7A
 10
-0.0514309
 20
-0.192071
 30
0.000000
  70
    32
  0
VERTEX
  8
0
  5
7F7B
 10
-0.0521587
 20
-0.191912
 30
0.000000
  70
    32
  0
VERTEX
  8
0
  5
7F7C
 10
-0.0528787
 20
-0.191751
 30
0.000000
  70
    32
  0
VERTEX
  8
0
  5
7F7D
 10
-0.0535906
 20
-0.191588
 30
0.000000
  70
    32
  0
VERTEX
  8
0
  5
7F7E
 10
-0.0542945
 20
-0.191422
 30
0.000000
  70
    32
  0
VERTEX
  8
0
  5
7F7F
 10
-0.0549903
 20
-0.191255
 30
0.000000
  70
    32
  0
VERTEX
  8
0
  5
7F80
 10
-0.0556777
 20
-0.191085
 30
0.000000
  70
    32
  0
VERTEX
  8
0
  5
7F81
 10
-0.0563568
 20
-0.190913
 30
0.000000
  70
    32
  0
VERTEX
  8
0
  5
7F82
 10
-0.0570273
 20
-0.190739
 30
0.000000
  70
    32
  0
VERTEX
  8
0
  5
7F83
 10
-0.0576893
 20
-0.190563
 30
0.000000
  70
    32
  0
VERTEX
  8
0
  5
7F84
 10
-0.0583426
 20
-0.190385
 30
0.000000
  70
    32
  0
VERTEX
  8
0
  5
7F85
 10
-0.0589871
 20
-0.190205
 30
0.000000
  70
    32
  0
VERTEX
  8
0
  5
7F86
 10
-0.0596227
 20
-0.190023
 30
0.000000
  70
    32
  0
VERTEX
  8
0
  5
7F87
 10
-0.0602494
 20
-0.189839
 30
0.000000
  70
    32
  0
VERTEX
  8
0
  5
7F88
 10
-0.0608670
 20
-0.189653
 30
0.000000
  70
    32
  0
VERTEX
  8
0
  5
7F89
 10
-0.0614754
 20
-0.189466
 30
0.000000
  70
    32
  0
VERTEX
  8
0
  5
7F8A
 10
-0.0620745
 20
-0.189276
 30
0.000000
  70
    32
  0
VERTEX
  8
0
  5
7F8B
 10
-0.0626643
 20
-0.189085
 30
0.000000
  70
    32
  0
VERTEX
  8
0
  5
7F8C
 10
-0.0632447
 20
-0.188892
 30
0.000000
  70
    32
  0
VERTEX
  8
0
  5
7F8D
 10
-0.0638155
 20
-0.188697
 30
0.000000
  70
    32
  0
VERTEX
  8
0
  5
7F8E
 10
-0.0643768
 20
-0.188500
 30
0.000000
  70
    32
  0
VERTEX
  8
0
  5
7F8F
 10
-0.0649283
 20
-0.188302
 30
0.000000
  70
    32
  0
VERTEX
  8
0
  5
7F90
 10
-0.0654700
 20
-0.188102
 30
0.000000
  70
    32
  0
VERTEX
  8
0
  5
7F91
 10
-0.0660019
 20
-0.187900
 30
0.000000
  70
    32
  0
VERTEX
  8
0
  5
7F92
 10
-0.0665239
 20
-0.187697
 30
0.000000
  70
    32
  0
VERTEX
  8
0
  5
7F93
 10
-0.0670358
 20
-0.187492
 30
0.000000
  70
    32
  0
VERTEX
  8
0
  5
7F94
 10
-0.0675377
 20
-0.187285
 30
0.000000
  70
    32
  0
VERTEX
  8
0
  5
7F95
 10
-0.0680294
 20
-0.187078
 30
0.000000
  70
    32
  0
VERTEX
  8
0
  5
7F96
 10
-0.0685108
 20
-0.186868
 30
0.000000
  70
    32
  0
VERTEX
  8
0
  5
7F97
 10
-0.0689819
 20
-0.186657
 30
0.000000
  70
    32
  0
VERTEX
  8
0
  5
7F98
 10
-0.0694426
 20
-0.186445
 30
0.000000
  70
    32
  0
VERTEX
  8
0
  5
7F99
 10
-0.0698929
 20
-0.186231
 30
0.000000
  70
    32
  0
VERTEX
  8
0
  5
7F9A
 10
-0.0703326
 20
-0.186016
 30
0.000000
  70
    32
  0
VERTEX
  8
0
  5
7F9B
 10
-0.0707618
 20
-0.185800
 30
0.000000
  70
    32
  0
VERTEX
  8
0
  5
7F9C
 10
-0.0711803
 20
-0.185582
 30
0.000000
  70
    32
  0
VERTEX
  8
0
  5
7F9D
 10
-0.0715880
 20
-0.185363
 30
0.000000
  70
    32
  0
VERTEX
  8
0
  5
7F9E
 10
-0.0719850
 20
-0.185143
 30
0.000000
  70
    32
  0
VERTEX
  8
0
  5
7F9F
 10
-0.0723712
 20
-0.184921
 30
0.000000
  70
    32
  0
VERTEX
  8
0
  5
7FA0
 10
-0.0727464
 20
-0.184698
 30
0.000000
  70
    32
  0
VERTEX
  8
0
  5
7FA1
 10
-0.0731107
 20
-0.184475
 30
0.000000
  70
    32
  0
VERTEX
  8
0
  5
7FA2
 10
-0.0734640
 20
-0.184250
 30
0.000000
  70
    32
  0
VERTEX
  8
0
  5
7FA3
 10
-0.0738062
 20
-0.184024
 30
0.000000
  70
    32
  0
VERTEX
  8
0
  5
7FA4
 10
-0.0741373
 20
-0.183797
 30
0.000000
  70
    32
  0
VERTEX
  8
0
  5
7FA5
 10
-0.0744573
 20
-0.183569
 30
0.000000
  70
    32
  0
VERTEX
  8
0
  5
7FA6
 10
-0.0747660
 20
-0.183340
 30
0.000000
  70
    32
  0
VERTEX
  8
0
  5
7FA7
 10
-0.0750635
 20
-0.183110
 30
0.000000
  70
    32
  0
VERTEX
  8
0
  5
7FA8
 10
-0.0753496
 20
-0.182880
 30
0.000000
  70
    32
  0
VERTEX
  8
0
  5
7FA9
 10
-0.0756245
 20
-0.182648
 30
0.000000
  70
    32
  0
VERTEX
  8
0
  5
7FAA
 10
-0.0758879
 20
-0.182416
 30
0.000000
  70
    32
  0
VERTEX
  8
0
  5
7FAB
 10
-0.0761399
 20
-0.182182
 30
0.000000
  70
    32
  0
VERTEX
  8
0
  5
7FAC
 10
-0.0763804
 20
-0.181948
 30
0.000000
  70
    32
  0
VERTEX
  8
0
  5
7FAD
 10
-0.0766094
 20
-0.181714
 30
0.000000
  70
    32
  0
VERTEX
  8
0
  5
7FAE
 10
-0.0768269
 20
-0.181478
 30
0.000000
  70
    32
  0
VERTEX
  8
0
  5
7FAF
 10
-0.0770329
 20
-0.181242
 30
0.000000
  70
    32
  0
VERTEX
  8
0
  5
7FB0
 10
-0.0772272
 20
-0.181006
 30
0.000000
  70
    32
  0
VERTEX
  8
0
  5
7FB1
 10
-0.0774099
 20
-0.180769
 30
0.000000
  70
    32
  0
VERTEX
  8
0
  5
7FB2
 10
-0.0775809
 20
-0.180531
 30
0.000000
  70
    32
  0
VERTEX
  8
0
  5
7FB3
 10
-0.0777403
 20
-0.180292
 30
0.000000
  70
    32
  0
VERTEX
  8
0
  5
7FB4
 10
-0.0778879
 20
-0.180054
 30
0.000000
  70
    32
  0
VERTEX
  8
0
  5
7FB5
 10
-0.0780238
 20
-0.179815
 30
0.000000
  70
    32
  0
VERTEX
  8
0
  5
7FB6
 10
-0.0781480
 20
-0.179575
 30
0.000000
  70
    32
  0
VERTEX
  8
0
  5
7FB7
 10
-0.0782604
 20
-0.179335
 30
0.000000
  70
    32
  0
VERTEX
  8
0
  5
7FB8
 10
-0.0783610
 20
-0.179095
 30
0.000000
  70
    32
  0
VERTEX
  8
0
  5
7FB9
 10
-0.0784498
 20
-0.178854
 30
0.000000
  70
    32
  0
VERTEX
  8
0
  5
7FBA
 10
-0.0785268
 20
-0.178613
 30
0.000000
  70
    32
  0
VERTEX
  8
0
  5
7FBB
 10
-0.0785920
 20
-0.178372
 30
0.000000
  70
    32
  0
VERTEX
  8
0
  5
7FBC
 10
-0.0786453
 20
-0.178131
 30
0.000000
  70
    32
  0
VERTEX
  8
0
  5
7FBD
 10
-0.0786868
 20
-0.177890
 30
0.000000
  70
    32
  0
VERTEX
  8
0
  5
7FBE
 10
-0.0787164
 20
-0.177648
 30
0.000000
  70
    32
  0
VERTEX
  8
0
  5
7FBF
 10
-0.0787342
 20
-0.177407
 30
0.000000
  70
    32
  0
VERTEX
  8
0
  5
7FC0
 10
-0.0787402
 20
-0.177165
 30
0.000000
  70
    32
  0
SEQEND
  8
0
  5
7FC1
  0
LINE
  5
7C04
  8
0
 10
-0.0787401579998672
 20
-0.1968503949999841
 30
0.0
 11
-0.1181102369998754
 21
-0.1968503949999841
 31
0.0
  0
LINE
  5
7C05
  8
0
 10
-0.0826771658998311
 20
0.000000000000014
 30
0.0
 11
-0.0826771658998098
 21
0.1535433081000117
 31
0.0
  0
LINE
  5
7C06
  8
0
 10
-0.0984251974998358
 20
0.000000000000014
 30
0.0
 11
-0.0984251974998074
 21
0.1377952765000134
 31
0.0
  0
LINE
  5
7C07
  8
0
 10
0.0000000000001705
 20
0.0
 30
0.0
 11
-0.129921260699831
 21
0.000000000000014
 31
0.0
  0
LINE
  5
7C08
  8
0
 10
0.0000000000001705
 20
0.0
 30
0.0
 11
-0.0984251974998358
 21
0.000000000000014
 31
0.0
  0
LINE
  5
7C09
  8
0
 10
-0.129921260699831
 20
0.000000000000014
 30
0.0
 11
-0.1299212606998381
 21
-0.03937007899998
 31
0.0
  0
LINE
  5
7C0A
  8
0
 10
0.0000000000001918
 20
0.1574803160000036
 30
0.0
 11
-0.0787401579998033
 21
0.1574803160000187
 31
0.0
  0
LINE
  5
7C0B
  8
0
 10
0.0000000000001918
 20
0.1377952764999997
 30
0.0
 11
-0.0984251974998074
 21
0.1377952765000134
 31
0.0
  0
LINE
  5
7C0C
  8
0
 10
-0.0787401579998033
 20
0.1574803160000187
 30
0.0
 11
-0.0984251974998074
 21
0.1377952765000134
 31
0.0
  0
LINE
  5
7C0D
  8
0
 10
-0.1574803159998623
 20
-0.1771653554999659
 30
0.0
 11
-0.157480315999841
 21
-0.03937007899998
 31
0.0
  0
POINT
  5
7C0E
  8
0
 10
-0.1771653554998878
 20
-0.19685039499997
 30
0.0
  0
ENDSEC
  0
EOF
