  0
SECTION
  2
HEADER
  9
$ACADVER
  1
AC1009
  9
$INSBASE
 10
0.0
 20
0.0
 30
0.0
  9
$EXTMIN
 10
-0.235447891436479
 20
-0.5831904297032793
 30
-0.0015258207003583
  9
$EXTMAX
 10
0.2407597966273443
 20
0.1698305669355022
 30
0.0000000349246037
  9
$LIMMIN
 10
0.0
 20
0.0
  9
$LIMMAX
 10
297.0
 20
210.0
  9
$ORTHOMODE
 70
     0
  9
$REGENMODE
 70
     1
  9
$FILLMODE
 70
     1
  9
$QTEXTMODE
 70
     0
  9
$MIRRTEXT
 70
     0
  9
$DRAGMODE
 70
     2
  9
$LTSCALE
 40
0.2
  9
$OSMODE
 70
     8
  9
$ATTMODE
 70
     1
  9
$TEXTSIZE
 40
0.2
  9
$TRACEWID
 40
0.05
  9
$TEXTSTYLE
  7
GHS
  9
$CLAYER
  8
0
  9
$CELTYPE
  6
BYLAYER
  9
$CECOLOR
 62
   256
  9
$DIMSCALE
 40
0.2
  9
$DIMASZ
 40
2.5
  9
$DIMEXO
 40
1.0
  9
$DIMDLI
 40
1.0
  9
$DIMRND
 40
0.0
  9
$DIMDLE
 40
0.0
  9
$DIMEXE
 40
1.0
  9
$DIMTP
 40
0.0
  9
$DIMTM
 40
0.0
  9
$DIMTXT
 40
3.0
  9
$DIMCEN
 40
2.5
  9
$DIMTSZ
 40
0.0
  9
$DIMTOL
 70
     0
  9
$DIMLIM
 70
     0
  9
$DIMTIH
 70
     0
  9
$DIMTOH
 70
     0
  9
$DIMSE1
 70
     0
  9
$DIMSE2
 70
     0
  9
$DIMTAD
 70
     1
  9
$DIMZIN
 70
     8
  9
$DIMBLK
  1

  9
$DIMASO
 70
     1
  9
$DIMSHO
 70
     1
  9
$DIMPOST
  1

  9
$DIMAPOST
  1

  9
$DIMALT
 70
     0
  9
$DIMALTD
 70
     2
  9
$DIMALTF
 40
0.0394
  9
$DIMLFAC
 40
1.0
  9
$DIMTOFL
 70
     1
  9
$DIMTVP
 40
1.0
  9
$DIMTIX
 70
     1
  9
$DIMSOXD
 70
     0
  9
$DIMSAH
 70
     1
  9
$DIMBLK1
  1
OPEN
  9
$DIMBLK2
  1
OPEN
  9
$DIMSTYLE
  2
STANDARD
  9
$DIMCLRD
 70
     6
  9
$DIMCLRE
 70
     6
  9
$DIMCLRT
 70
     4
  9
$DIMTFAC
 40
1.0
  9
$DIMGAP
 40
0.8
  9
$LUNITS
 70
     2
  9
$LUPREC
 70
     4
  9
$SKETCHINC
 40
0.1
  9
$FILLETRAD
 40
1.0
  9
$AUNITS
 70
     0
  9
$AUPREC
 70
     0
  9
$MENU
  1
.
  9
$ELEVATION
 40
0.0
  9
$PELEVATION
 40
0.0
  9
$THICKNESS
 40
0.0
  9
$LIMCHECK
 70
     0
  9
$BLIPMODE
 70
     0
  9
$CHAMFERA
 40
0.5
  9
$CHAMFERB
 40
0.5
  9
$SKPOLY
 70
     1
  9
$TDCREATE
 40
2450788.5131729161
  9
$TDUPDATE
 40
2453313.582215521
  9
$TDINDWG
 40
5.0956213656999996
  9
$TDUSRTIMER
 40
5.0956213656999996
  9
$USRTIMER
 70
     1
  9
$ANGBASE
 50
0.0
  9
$ANGDIR
 70
     0
  9
$PDMODE
 70
    34
  9
$PDSIZE
 40
0.0
  9
$PLINEWID
 40
0.0
  9
$COORDS
 70
     0
  9
$SPLFRAME
 70
     0
  9
$SPLINETYPE
 70
     6
  9
$SPLINESEGS
 70
     8
  9
$ATTDIA
 70
     0
  9
$ATTREQ
 70
     1
  9
$HANDLING
 70
 12289
  9
$HANDSEED
  5
7D3E
  9
$SURFTAB1
 70
     6
  9
$SURFTAB2
 70
     6
  9
$SURFTYPE
 70
     6
  9
$SURFU
 70
     6
  9
$SURFV
 70
     6
  9
$UCSNAME
  2

  9
$UCSORG
 10
0.0
 20
0.0
 30
0.0
  9
$UCSXDIR
 10
1.0
 20
0.0
 30
0.0
  9
$UCSYDIR
 10
0.0
 20
1.0
 30
0.0
  9
$PUCSNAME
  2

  9
$PUCSORG
 10
0.0
 20
0.0
 30
0.0
  9
$PUCSXDIR
 10
1.0
 20
0.0
 30
0.0
  9
$PUCSYDIR
 10
0.0
 20
1.0
 30
0.0
  9
$USERI1
 70
     0
  9
$USERI2
 70
     0
  9
$USERI3
 70
     0
  9
$USERI4
 70
     0
  9
$USERI5
 70
     0
  9
$USERR1
 40
0.0
  9
$USERR2
 40
0.0
  9
$USERR3
 40
0.0
  9
$USERR4
 40
0.0
  9
$USERR5
 40
0.0
  9
$WORLDVIEW
 70
     1
  9
$SHADEDGE
 70
     3
  9
$SHADEDIF
 70
    70
  9
$TILEMODE
 70
     1
  9
$MAXACTVP
 70
    48
  9
$PLIMCHECK
 70
     0
  9
$PEXTMIN
 10
1.0000000000000000E+020
 20
1.0000000000000000E+020
 30
1.0000000000000000E+020
  9
$PEXTMAX
 10
-1.0000000000000000E+020
 20
-1.0000000000000000E+020
 30
-1.0000000000000000E+020
  9
$PLIMMIN
 10
0.0
 20
0.0
  9
$PLIMMAX
 10
12.0
 20
9.0
  9
$UNITMODE
 70
     0
  9
$VISRETAIN
 70
     0
  9
$PLINEGEN
 70
     0
  9
$PSLTSCALE
 70
     1
  0
ENDSEC
  0
SECTION
  2
TABLES
  0
TABLE
  2
VPORT
 70
     4
  0
VPORT
  2
*ACTIVE
 70
     0
 10
0.0
 20
0.0
 11
1.0
 21
1.0
 12
-59.782151068925671
 22
-110.5928078484673
 13
0.0
 23
0.0
 14
0.01
 24
0.01
 15
350.0
 25
350.0
 16
0.0
 26
0.0
 36
1.0
 17
59.784807021521097
 27
110.3861279170835
 37
0.0
 40
1.521435948915836
 41
1.8430034129692829
 42
50.0
 43
0.0
 44
0.0
 50
0.0
 51
0.0
 71
     0
 72
 20000
 73
     1
 74
     0
 75
     0
 76
     0
 77
     0
 78
     0
  0
ENDTAB
  0
TABLE
  2
LTYPE
 70
    12
  0
LTYPE
  2
CONTINUOUS
 70
     0
  3
Solid line
 72
    65
 73
     0
 40
0.0
  0
LTYPE
  2
CENTER
 70
     0
  3
____ _ ____ _ ____ _ ____ _ ____ _ ____ _ ____ 
 72
    65
 73
     4
 40
2.0
 49
1.25
 49
-0.25
 49
0.25
 49
-0.25
  0
LTYPE
  2
HIDDEN
 70
     0
  3
__ __ __ __ __ __ __ __ __ __ __ __ __ __ __ __
 72
    65
 73
     2
 40
0.375
 49
0.25
 49
-0.125
  0
LTYPE
  2
PHANTOM2
 70
     0
  3
___ _ _ ___ _ _ ___ _ _ ___ _ _ ___ _ _ ___ _ _
 72
    65
 73
     6
 40
1.25
 49
0.625
 49
-0.125
 49
0.125
 49
-0.125
 49
0.125
 49
-0.125
  0
LTYPE
  2
AMCONSTR
 70
     0
  3
_______________________
 72
    65
 73
     2
 40
9999.0
 49
9999.0
 49
0.0
  0
LTYPE
  2
HIDDEN2
 70
     0
  3
_ _ _ _ _ _ _ _ _ _ _ _ _ _ _ _ _ _ _ _ _ _ _ _
 72
    65
 73
     2
 40
0.1875
 49
0.125
 49
-0.0625
  0
LTYPE
  2
CENTER2
 70
     0
  3
___ _ ___ _ ___ _ ___ _ ___ _ ___ _ ___ _ ___ _
 72
    65
 73
     4
 40
1.125
 49
0.75
 49
-0.125
 49
0.125
 49
-0.125
  0
LTYPE
  2
AMZIGZAG2
 70
     0
  3
/\/-/\/-/\/-/\/-/\/-/\/
 72
    65
 73
     2
 40
0.4401
 49
0.0001
 49
-0.4400000000000002
  0
LTYPE
  2
ASULTYPE
 70
     0
  3
Solid line
 72
    65
 73
     2
 40
3.0
 49
2.5
 49
0.5
  0
LTYPE
  2
ASVLTYPE
 70
     0
  3
__ __ __ __ __ __ __ __ __ __ __ __ __ __ __ __ __ __ __ __ __
 72
    65
 73
     2
 40
0.75
 49
0.5
 49
-0.25
  0
LTYPE
  2
ACANSTGB
 70
     0
  3
__ . . __ . .
 72
    65
 73
     6
 40
0.35433070866
 49
0.15748031496
 49
-0.03937007874
 49
0.03937007874
 49
-0.03937007874
 49
0.03937007874
 49
-0.03937007874
  0
LTYPE
  2
ACANSTGL
 70
     0
  3
_ _ _ _ _
 72
    65
 73
     2
 40
0.11811023622
 49
0.07874015748
 49
-0.03937007874
  0
ENDTAB
  0
TABLE
  2
LAYER
 70
     3
  0
LAYER
  2
0
 70
     0
 62
     7
  6
CONTINUOUS
  0
LAYER
  2
DEFPOINTS
 70
     0
 62
     7
  6
CONTINUOUS
  0
ENDTAB
  0
TABLE
  2
STYLE
 70
     6
  0
STYLE
  2
STANDARD
 70
     0
 40
0.0
 41
1.0
 50
0.0
 71
     0
 42
600.0
  3
txt
  4

  0
STYLE
  2
ROMANS
 70
     0
 40
0.0
 41
1.0
 50
0.0
 71
     0
 42
0.156
  3
romans.shx
  4

  0
STYLE
  2
GHS
 70
     0
 40
0.0
 41
0.8
 50
0.0
 71
     0
 42
0.2
  3
romans.shx
  4
ghs.shx
  0
STYLE
  2

 70
     1
 40
0.0
 41
1.0
 50
0.0
 71
     0
 42
0.156
  3
ltypeshp.shx
  4

  0
STYLE
  2
ACANSTS
 70
     0
 40
1.0
 41
1.0
 50
0.0
 71
     0
 42
0.156
  3
romans.shx
  4

  0
STYLE
  2
ACANSGDT
 70
     0
 40
0.0
 41
1.0
 50
0.0
 71
     0
 42
0.156
  3
amgdtans.shx
  4

  0
ENDTAB
  0
TABLE
  2
VIEW
 70
     0
  0
ENDTAB
  0
TABLE
  2
UCS
 70
     0
  0
ENDTAB
  0
TABLE
  2
APPID
 70
    16
  0
APPID
  2
ACAD
 70
     0
  0
APPID
  2
AD_DRAW
 70
     0
  0
APPID
  2
DESIGNERASSEMBLIES
 70
     0
  0
APPID
  2
MCAD_NO_VIS
 70
     0
  0
APPID
  2
ASURF_PCURVE_APPNAME
 70
     0
  0
APPID
  2
GENIUS_GENDIM_13
 70
     0
  0
APPID
  2
GENIUS_GENDTOL_13
 70
     0
  0
APPID
  2
GENIUS_GE3DTOL_13
 70
     0
  0
APPID
  2
ACAD_TEMP_GRAPHIC
 70
     0
  0
APPID
  2
ACATTRIBSERVICES
 70
     0
  0
APPID
  2
ACADM_DIM_EDIT
 70
     0
  0
APPID
  2
AD_SKETCHDIM
 70
     0
  0
APPID
  2
GENIUS_GENDIMSH_14
 70
     0
  0
APPID
  2
AMG_3D2D_5_0
 70
     0
  0
APPID
  2
AMDT_DM_ADJ
 70
     0
  0
APPID
  2
DCO15
 70
     0
  0
ENDTAB
  0
TABLE
  2
DIMSTYLE
 70
     8
  0
DIMSTYLE
  2
STANDARD
 70
     0
  3

  4

  5

  6
OPEN
  7
OPEN
 40
90.0
 41
3.0
 42
1.0
 43
0.38
 44
0.8
 45
0.0
 46
0.0
 47
0.1
 48
0.1
140
3.0
141
0.09
142
0.0
143
25.399999999999999
144
1.0
145
0.0
146
1.0
147
1.0
 71
     0
 72
     0
 73
     0
 74
     0
 75
     0
 76
     0
 77
     1
 78
     9
170
     0
171
     2
172
     1
173
     1
174
     0
175
     0
176
     4
177
     4
178
     4
  0
DIMSTYLE
  2
AM_ANSI
 70
     0
  3

  4
mm
  5

  6

  7

 40
1.0
 41
0.1
 42
0.05
 43
0.5
 44
0.1
 45
0.0
 46
0.0
 47
0.1
 48
0.1
140
0.12
141
0.0
142
0.0
143
25.399999999999999
144
1.0
145
0.0
146
0.71
147
0.06
 71
     0
 72
     0
 73
     1
 74
     1
 75
     0
 76
     0
 77
     0
 78
     7
170
     0
171
     2
172
     0
173
     0
174
     0
175
     0
176
   256
177
   256
178
   256
  0
DIMSTYLE
  2
AM_ANSI$3
 70
     0
  3

  4
mm
  5

  6

  7

 40
1.0
 41
0.1
 42
0.05
 43
0.5
 44
0.1
 45
0.0
 46
0.0
 47
0.1
 48
0.1
140
0.12
141
0.0
142
0.0
143
25.399999999999999
144
1.0
145
0.0
146
0.71
147
0.06
 71
     0
 72
     0
 73
     1
 74
     1
 75
     0
 76
     0
 77
     0
 78
     7
170
     0
171
     2
172
     0
173
     0
174
     0
175
     0
176
   256
177
   256
178
   256
  0
DIMSTYLE
  2
AM_ANSI$4
 70
     0
  3

  4
mm
  5

  6

  7

 40
1.0
 41
0.1
 42
0.05
 43
0.5
 44
0.1
 45
0.0
 46
0.0
 47
0.1
 48
0.1
140
0.12
141
0.0
142
0.0
143
25.399999999999999
144
1.0
145
0.0
146
0.71
147
0.06
 71
     0
 72
     0
 73
     1
 74
     1
 75
     0
 76
     0
 77
     0
 78
     7
170
     0
171
     2
172
     0
173
     0
174
     0
175
     0
176
   256
177
   256
178
   256
  0
DIMSTYLE
  2
AM_ANSI$6
 70
     0
  3

  4
mm
  5

  6

  7

 40
1.0
 41
0.1
 42
0.05
 43
0.5
 44
0.1
 45
0.0
 46
0.0
 47
0.1
 48
0.1
140
0.12
141
0.0
142
0.0
143
25.399999999999999
144
1.0
145
0.0
146
0.71
147
0.06
 71
     0
 72
     0
 73
     1
 74
     1
 75
     0
 76
     0
 77
     0
 78
     7
170
     0
171
     2
172
     0
173
     0
174
     0
175
     0
176
   256
177
   256
178
   256
  0
DIMSTYLE
  2
AM_ANSI$7
 70
     0
  3

  4
mm
  5

  6

  7

 40
1.0
 41
0.1
 42
0.05
 43
0.5
 44
0.1
 45
0.0
 46
0.0
 47
0.1
 48
0.1
140
0.12
141
0.0
142
0.0
143
25.399999999999999
144
1.0
145
0.0
146
0.71
147
0.06
 71
     0
 72
     0
 73
     1
 74
     1
 75
     0
 76
     0
 77
     0
 78
     7
170
     0
171
     2
172
     0
173
     0
174
     0
175
     0
176
   256
177
   256
178
   256
  0
DIMSTYLE
  2
AM_ANSI$SF
 70
     0
  3

  4
mm
  5

  6

  7

 40
1.0
 41
0.1
 42
0.05
 43
0.5
 44
0.1
 45
0.0
 46
0.0
 47
0.1
 48
0.1
140
0.12
141
0.0
142
0.0
143
25.399999999999999
144
1.0
145
0.0
146
0.71
147
0.06
 71
     0
 72
     0
 73
     1
 74
     1
 75
     1
 76
     1
 77
     0
 78
     7
170
     0
171
     2
172
     0
173
     0
174
     0
175
     0
176
   256
177
   256
178
     2
  0
DIMSTYLE
  2
AM_ANSI$SH
 70
     0
  3

  4
mm
  5

  6
GENAXEH
  7

 40
1.0
 41
0.1
 42
0.05
 43
0.5
 44
0.1
 45
0.0
 46
0.0
 47
0.1
 48
0.1
140
0.12
141
0.0
142
0.0
143
25.399999999999999
144
1.0
145
0.0
146
0.71
147
0.06
 71
     0
 72
     0
 73
     1
 74
     1
 75
     1
 76
     1
 77
     0
 78
     7
170
     0
171
     2
172
     0
173
     1
174
     0
175
     0
176
   256
177
   256
178
     2
  0
ENDTAB
  0
ENDSEC
  0
SECTION
  2
BLOCKS
  0
BLOCK
  8
0
  2
$MODEL_SPACE
 70
     0
 10
0.0
 20
0.0
 30
0.0
  3
$MODEL_SPACE
  1

  0
ENDBLK
  5
6
  8
0
  0
BLOCK
 67
     1
  8
0
  2
$PAPER_SPACE
 70
     0
 10
0.0
 20
0.0
 30
0.0
  3
$PAPER_SPACE
  1

  0
ENDBLK
  5
9
 67
     1
  8
0
  0
BLOCK
  8
0
  2
_OPEN
 70
     0
 10
0.0
 20
0.0
 30
0.0
  3
_OPEN
  1

  0
LINE
  5
20
  8
0
  6
BYBLOCK
 62
     0
 10
-1.0
 20
0.1666666666666666
 30
0.0
 11
0.0
 21
0.0
 31
0.0
  0
LINE
  5
21
  8
0
  6
BYBLOCK
 62
     0
 10
0.0
 20
0.0
 30
0.0
 11
-1.0
 21
-0.1666666666666666
 31
0.0
  0
LINE
  5
22
  8
0
  6
BYBLOCK
 62
     0
 10
0.0
 20
0.0
 30
0.0
 11
-1.0
 21
0.0
 31
0.0
  0
ENDBLK
  5
24
  8
0
  0
BLOCK
  8
0
  2
GENAXEH
 70
     0
 10
0.0
 20
0.0
 30
0.0
  3
GENAXEH
  1

  0
LINE
  5
7A41
  8
0
 10
-1.0
 20
0.0
 30
0.0
 11
1.0
 21
0.0
 31
0.0
  0
ENDBLK
  5
7A42
  8
0
  0
ENDSEC
  0
SECTION
  2
ENTITIES
  0
LINE
  5
7490
  8
0
 10
-0.0787401579999987
 20
0.1653543318000034
 30
0.0
 11
0.0787401579999987
 21
0.1653543318000034
 31
0.0
  0
LINE
  5
749C
  8
0
 10
0.0787401580000058
 20
-0.1614173238999967
 30
0.0
 11
0.0787401580000058
 21
0.0
 31
0.0
  0
LINE
  5
749D
  8
0
 10
0.1574803160000009
 20
-0.1614173238999967
 30
0.0
 11
0.1574803160000009
 21
0.0
 31
0.0
  0
POLYLINE
  5
749E
  8
0
 10
0.0787401580000009
 20
-0.1614173238999967
 30
0.0
 66
     1
 70
     8
  0
VERTEX
  8
0
  5
7AB4
 10
0.0787402
 20
-0.161417
 30
0.000000
  70
    32
  0
VERTEX
  8
0
  5
7AB5
 10
0.0787520
 20
-0.161900
 30
0.000000
  70
    32
  0
VERTEX
  8
0
  5
7AB6
 10
0.0787876
 20
-0.162383
 30
0.000000
  70
    32
  0
VERTEX
  8
0
  5
7AB7
 10
0.0788468
 20
-0.162865
 30
0.000000
  70
    32
  0
VERTEX
  8
0
  5
7AB8
 10
0.0789297
 20
-0.163347
 30
0.000000
  70
    32
  0
VERTEX
  8
0
  5
7AB9
 10
0.0790362
 20
-0.163827
 30
0.000000
  70
    32
  0
VERTEX
  8
0
  5
7ABA
 10
0.0791663
 20
-0.164306
 30
0.000000
  70
    32
  0
VERTEX
  8
0
  5
7ABB
 10
0.0793198
 20
-0.164783
 30
0.000000
  70
    32
  0
VERTEX
  8
0
  5
7ABC
 10
0.0794966
 20
-0.165258
 30
0.000000
  70
    32
  0
VERTEX
  8
0
  5
7ABD
 10
0.0796968
 20
-0.165730
 30
0.000000
  70
    32
  0
VERTEX
  8
0
  5
7ABE
 10
0.0799200
 20
-0.166200
 30
0.000000
  70
    32
  0
VERTEX
  8
0
  5
7ABF
 10
0.0801663
 20
-0.166668
 30
0.000000
  70
    32
  0
VERTEX
  8
0
  5
7AC0
 10
0.0804354
 20
-0.167132
 30
0.000000
  70
    32
  0
VERTEX
  8
0
  5
7AC1
 10
0.0807272
 20
-0.167592
 30
0.000000
  70
    32
  0
VERTEX
  8
0
  5
7AC2
 10
0.0810416
 20
-0.168049
 30
0.000000
  70
    32
  0
VERTEX
  8
0
  5
7AC3
 10
0.0813782
 20
-0.168502
 30
0.000000
  70
    32
  0
VERTEX
  8
0
  5
7AC4
 10
0.0817370
 20
-0.168950
 30
0.000000
  70
    32
  0
VERTEX
  8
0
  5
7AC5
 10
0.0821177
 20
-0.169395
 30
0.000000
  70
    32
  0
VERTEX
  8
0
  5
7AC6
 10
0.0825201
 20
-0.169834
 30
0.000000
  70
    32
  0
VERTEX
  8
0
  5
7AC7
 10
0.0829439
 20
-0.170268
 30
0.000000
  70
    32
  0
VERTEX
  8
0
  5
7AC8
 10
0.0833889
 20
-0.170697
 30
0.000000
  70
    32
  0
VERTEX
  8
0
  5
7AC9
 10
0.0838548
 20
-0.171120
 30
0.000000
  70
    32
  0
VERTEX
  8
0
  5
7ACA
 10
0.0843414
 20
-0.171537
 30
0.000000
  70
    32
  0
VERTEX
  8
0
  5
7ACB
 10
0.0848483
 20
-0.171949
 30
0.000000
  70
    32
  0
VERTEX
  8
0
  5
7ACC
 10
0.0853752
 20
-0.172354
 30
0.000000
  70
    32
  0
VERTEX
  8
0
  5
7ACD
 10
0.0859219
 20
-0.172752
 30
0.000000
  70
    32
  0
VERTEX
  8
0
  5
7ACE
 10
0.0864879
 20
-0.173144
 30
0.000000
  70
    32
  0
VERTEX
  8
0
  5
7ACF
 10
0.0870730
 20
-0.173528
 30
0.000000
  70
    32
  0
VERTEX
  8
0
  5
7AD0
 10
0.0876768
 20
-0.173905
 30
0.000000
  70
    32
  0
VERTEX
  8
0
  5
7AD1
 10
0.0882989
 20
-0.174275
 30
0.000000
  70
    32
  0
VERTEX
  8
0
  5
7AD2
 10
0.0889389
 20
-0.174637
 30
0.000000
  70
    32
  0
VERTEX
  8
0
  5
7AD3
 10
0.0895966
 20
-0.174991
 30
0.000000
  70
    32
  0
VERTEX
  8
0
  5
7AD4
 10
0.0902714
 20
-0.175337
 30
0.000000
  70
    32
  0
VERTEX
  8
0
  5
7AD5
 10
0.0909630
 20
-0.175674
 30
0.000000
  70
    32
  0
VERTEX
  8
0
  5
7AD6
 10
0.0916709
 20
-0.176003
 30
0.000000
  70
    32
  0
VERTEX
  8
0
  5
7AD7
 10
0.0923948
 20
-0.176323
 30
0.000000
  70
    32
  0
VERTEX
  8
0
  5
7AD8
 10
0.0931341
 20
-0.176634
 30
0.000000
  70
    32
  0
VERTEX
  8
0
  5
7AD9
 10
0.0938885
 20
-0.176936
 30
0.000000
  70
    32
  0
VERTEX
  8
0
  5
7ADA
 10
0.0946575
 20
-0.177228
 30
0.000000
  70
    32
  0
VERTEX
  8
0
  5
7ADB
 10
0.0954406
 20
-0.177512
 30
0.000000
  70
    32
  0
VERTEX
  8
0
  5
7ADC
 10
0.0962374
 20
-0.177785
 30
0.000000
  70
    32
  0
VERTEX
  8
0
  5
7ADD
 10
0.0970473
 20
-0.178048
 30
0.000000
  70
    32
  0
VERTEX
  8
0
  5
7ADE
 10
0.0978700
 20
-0.178302
 30
0.000000
  70
    32
  0
VERTEX
  8
0
  5
7ADF
 10
0.0987048
 20
-0.178545
 30
0.000000
  70
    32
  0
VERTEX
  8
0
  5
7AE0
 10
0.0995513
 20
-0.178778
 30
0.000000
  70
    32
  0
VERTEX
  8
0
  5
7AE1
 10
0.100409
 20
-0.179000
 30
0.000000
  70
    32
  0
VERTEX
  8
0
  5
7AE2
 10
0.101277
 20
-0.179212
 30
0.000000
  70
    32
  0
VERTEX
  8
0
  5
7AE3
 10
0.102156
 20
-0.179414
 30
0.000000
  70
    32
  0
VERTEX
  8
0
  5
7AE4
 10
0.103044
 20
-0.179604
 30
0.000000
  70
    32
  0
VERTEX
  8
0
  5
7AE5
 10
0.103941
 20
-0.179783
 30
0.000000
  70
    32
  0
VERTEX
  8
0
  5
7AE6
 10
0.104847
 20
-0.179952
 30
0.000000
  70
    32
  0
VERTEX
  8
0
  5
7AE7
 10
0.105761
 20
-0.180109
 30
0.000000
  70
    32
  0
VERTEX
  8
0
  5
7AE8
 10
0.106682
 20
-0.180255
 30
0.000000
  70
    32
  0
VERTEX
  8
0
  5
7AE9
 10
0.107610
 20
-0.180389
 30
0.000000
  70
    32
  0
VERTEX
  8
0
  5
7AEA
 10
0.108544
 20
-0.180512
 30
0.000000
  70
    32
  0
VERTEX
  8
0
  5
7AEB
 10
0.109484
 20
-0.180624
 30
0.000000
  70
    32
  0
VERTEX
  8
0
  5
7AEC
 10
0.110430
 20
-0.180724
 30
0.000000
  70
    32
  0
VERTEX
  8
0
  5
7AED
 10
0.111379
 20
-0.180813
 30
0.000000
  70
    32
  0
VERTEX
  8
0
  5
7AEE
 10
0.112333
 20
-0.180889
 30
0.000000
  70
    32
  0
VERTEX
  8
0
  5
7AEF
 10
0.113291
 20
-0.180954
 30
0.000000
  70
    32
  0
VERTEX
  8
0
  5
7AF0
 10
0.114251
 20
-0.181008
 30
0.000000
  70
    32
  0
VERTEX
  8
0
  5
7AF1
 10
0.115214
 20
-0.181049
 30
0.000000
  70
    32
  0
VERTEX
  8
0
  5
7AF2
 10
0.116178
 20
-0.181079
 30
0.000000
  70
    32
  0
VERTEX
  8
0
  5
7AF3
 10
0.117144
 20
-0.181096
 30
0.000000
  70
    32
  0
VERTEX
  8
0
  5
7AF4
 10
0.118110
 20
-0.181102
 30
0.000000
  70
    32
  0
VERTEX
  8
0
  5
7AF5
 10
0.119076
 20
-0.181096
 30
0.000000
  70
    32
  0
VERTEX
  8
0
  5
7AF6
 10
0.120042
 20
-0.181079
 30
0.000000
  70
    32
  0
VERTEX
  8
0
  5
7AF7
 10
0.121006
 20
-0.181049
 30
0.000000
  70
    32
  0
VERTEX
  8
0
  5
7AF8
 10
0.121969
 20
-0.181008
 30
0.000000
  70
    32
  0
VERTEX
  8
0
  5
7AF9
 10
0.122930
 20
-0.180954
 30
0.000000
  70
    32
  0
VERTEX
  8
0
  5
7AFA
 10
0.123887
 20
-0.180889
 30
0.000000
  70
    32
  0
VERTEX
  8
0
  5
7AFB
 10
0.124841
 20
-0.180813
 30
0.000000
  70
    32
  0
VERTEX
  8
0
  5
7AFC
 10
0.125791
 20
-0.180724
 30
0.000000
  70
    32
  0
VERTEX
  8
0
  5
7AFD
 10
0.126736
 20
-0.180624
 30
0.000000
  70
    32
  0
VERTEX
  8
0
  5
7AFE
 10
0.127676
 20
-0.180512
 30
0.000000
  70
    32
  0
VERTEX
  8
0
  5
7AFF
 10
0.128611
 20
-0.180389
 30
0.000000
  70
    32
  0
VERTEX
  8
0
  5
7B00
 10
0.129539
 20
-0.180255
 30
0.000000
  70
    32
  0
VERTEX
  8
0
  5
7B01
 10
0.130460
 20
-0.180109
 30
0.000000
  70
    32
  0
VERTEX
  8
0
  5
7B02
 10
0.131374
 20
-0.179952
 30
0.000000
  70
    32
  0
VERTEX
  8
0
  5
7B03
 10
0.132279
 20
-0.179783
 30
0.000000
  70
    32
  0
VERTEX
  8
0
  5
7B04
 10
0.133177
 20
-0.179604
 30
0.000000
  70
    32
  0
VERTEX
  8
0
  5
7B05
 10
0.134065
 20
-0.179414
 30
0.000000
  70
    32
  0
VERTEX
  8
0
  5
7B06
 10
0.134943
 20
-0.179212
 30
0.000000
  70
    32
  0
VERTEX
  8
0
  5
7B07
 10
0.135811
 20
-0.179000
 30
0.000000
  70
    32
  0
VERTEX
  8
0
  5
7B08
 10
0.136669
 20
-0.178778
 30
0.000000
  70
    32
  0
VERTEX
  8
0
  5
7B09
 10
0.137516
 20
-0.178545
 30
0.000000
  70
    32
  0
VERTEX
  8
0
  5
7B0A
 10
0.138351
 20
-0.178302
 30
0.000000
  70
    32
  0
VERTEX
  8
0
  5
7B0B
 10
0.139173
 20
-0.178048
 30
0.000000
  70
    32
  0
VERTEX
  8
0
  5
7B0C
 10
0.139983
 20
-0.177785
 30
0.000000
  70
    32
  0
VERTEX
  8
0
  5
7B0D
 10
0.140780
 20
-0.177512
 30
0.000000
  70
    32
  0
VERTEX
  8
0
  5
7B0E
 10
0.141563
 20
-0.177228
 30
0.000000
  70
    32
  0
VERTEX
  8
0
  5
7B0F
 10
0.142332
 20
-0.176936
 30
0.000000
  70
    32
  0
VERTEX
  8
0
  5
7B10
 10
0.143086
 20
-0.176634
 30
0.000000
  70
    32
  0
VERTEX
  8
0
  5
7B11
 10
0.143826
 20
-0.176323
 30
0.000000
  70
    32
  0
VERTEX
  8
0
  5
7B12
 10
0.144550
 20
-0.176003
 30
0.000000
  70
    32
  0
VERTEX
  8
0
  5
7B13
 10
0.145258
 20
-0.175674
 30
0.000000
  70
    32
  0
VERTEX
  8
0
  5
7B14
 10
0.145949
 20
-0.175337
 30
0.000000
  70
    32
  0
VERTEX
  8
0
  5
7B15
 10
0.146624
 20
-0.174991
 30
0.000000
  70
    32
  0
VERTEX
  8
0
  5
7B16
 10
0.147282
 20
-0.174637
 30
0.000000
  70
    32
  0
VERTEX
  8
0
  5
7B17
 10
0.147922
 20
-0.174275
 30
0.000000
  70
    32
  0
VERTEX
  8
0
  5
7B18
 10
0.148544
 20
-0.173905
 30
0.000000
  70
    32
  0
VERTEX
  8
0
  5
7B19
 10
0.149147
 20
-0.173528
 30
0.000000
  70
    32
  0
VERTEX
  8
0
  5
7B1A
 10
0.149733
 20
-0.173144
 30
0.000000
  70
    32
  0
VERTEX
  8
0
  5
7B1B
 10
0.150299
 20
-0.172752
 30
0.000000
  70
    32
  0
VERTEX
  8
0
  5
7B1C
 10
0.150845
 20
-0.172354
 30
0.000000
  70
    32
  0
VERTEX
  8
0
  5
7B1D
 10
0.151372
 20
-0.171949
 30
0.000000
  70
    32
  0
VERTEX
  8
0
  5
7B1E
 10
0.151879
 20
-0.171537
 30
0.000000
  70
    32
  0
VERTEX
  8
0
  5
7B1F
 10
0.152366
 20
-0.171120
 30
0.000000
  70
    32
  0
VERTEX
  8
0
  5
7B20
 10
0.152832
 20
-0.170697
 30
0.000000
  70
    32
  0
VERTEX
  8
0
  5
7B21
 10
0.153277
 20
-0.170268
 30
0.000000
  70
    32
  0
VERTEX
  8
0
  5
7B22
 10
0.153700
 20
-0.169834
 30
0.000000
  70
    32
  0
VERTEX
  8
0
  5
7B23
 10
0.154103
 20
-0.169395
 30
0.000000
  70
    32
  0
VERTEX
  8
0
  5
7B24
 10
0.154483
 20
-0.168950
 30
0.000000
  70
    32
  0
VERTEX
  8
0
  5
7B25
 10
0.154842
 20
-0.168502
 30
0.000000
  70
    32
  0
VERTEX
  8
0
  5
7B26
 10
0.155179
 20
-0.168049
 30
0.000000
  70
    32
  0
VERTEX
  8
0
  5
7B27
 10
0.155493
 20
-0.167592
 30
0.000000
  70
    32
  0
VERTEX
  8
0
  5
7B28
 10
0.155785
 20
-0.167132
 30
0.000000
  70
    32
  0
VERTEX
  8
0
  5
7B29
 10
0.156054
 20
-0.166668
 30
0.000000
  70
    32
  0
VERTEX
  8
0
  5
7B2A
 10
0.156300
 20
-0.166200
 30
0.000000
  70
    32
  0
VERTEX
  8
0
  5
7B2B
 10
0.156524
 20
-0.165730
 30
0.000000
  70
    32
  0
VERTEX
  8
0
  5
7B2C
 10
0.156724
 20
-0.165258
 30
0.000000
  70
    32
  0
VERTEX
  8
0
  5
7B2D
 10
0.156901
 20
-0.164783
 30
0.000000
  70
    32
  0
VERTEX
  8
0
  5
7B2E
 10
0.157054
 20
-0.164306
 30
0.000000
  70
    32
  0
VERTEX
  8
0
  5
7B2F
 10
0.157184
 20
-0.163827
 30
0.000000
  70
    32
  0
VERTEX
  8
0
  5
7B30
 10
0.157291
 20
-0.163347
 30
0.000000
  70
    32
  0
VERTEX
  8
0
  5
7B31
 10
0.157374
 20
-0.162865
 30
0.000000
  70
    32
  0
VERTEX
  8
0
  5
7B32
 10
0.157433
 20
-0.162383
 30
0.000000
  70
    32
  0
VERTEX
  8
0
  5
7B33
 10
0.157468
 20
-0.161900
 30
0.000000
  70
    32
  0
VERTEX
  8
0
  5
7B34
 10
0.157480
 20
-0.161417
 30
0.000000
  70
    32
  0
SEQEND
  8
0
  5
7B35
  0
LINE
  5
749F
  8
0
 10
0.0787401580000058
 20
-0.1811023634000008
 30
0.0
 11
0.1181102370000069
 21
-0.1811023634000008
 31
0.0
  0
POLYLINE
  5
74A0
  8
0
 10
0.0000000000000031
 20
-0.1811023633999848
 30
0.0
 66
     1
 70
     8
  0
VERTEX
  8
0
  5
7B36
 10
3.11773e-015
 20
-0.181102
 30
0.000000
  70
    32
  0
VERTEX
  8
0
  5
7B37
 10
0.000966263
 20
-0.181101
 30
0.000000
  70
    32
  0
VERTEX
  8
0
  5
7B38
 10
0.00193238
 20
-0.181096
 30
0.000000
  70
    32
  0
VERTEX
  8
0
  5
7B39
 10
0.00289821
 20
-0.181089
 30
0.000000
  70
    32
  0
VERTEX
  8
0
  5
7B3A
 10
0.00386360
 20
-0.181079
 30
0.000000
  70
    32
  0
VERTEX
  8
0
  5
7B3B
 10
0.00482840
 20
-0.181065
 30
0.000000
  70
    32
  0
VERTEX
  8
0
  5
7B3C
 10
0.00579249
 20
-0.181049
 30
0.000000
  70
    32
  0
VERTEX
  8
0
  5
7B3D
 10
0.00675569
 20
-0.181030
 30
0.000000
  70
    32
  0
VERTEX
  8
0
  5
7B3E
 10
0.00771789
 20
-0.181008
 30
0.000000
  70
    32
  0
VERTEX
  8
0
  5
7B3F
 10
0.00867891
 20
-0.180982
 30
0.000000
  70
    32
  0
VERTEX
  8
0
  5
7B40
 10
0.00963864
 20
-0.180954
 30
0.000000
  70
    32
  0
VERTEX
  8
0
  5
7B41
 10
0.0105969
 20
-0.180923
 30
0.000000
  70
    32
  0
VERTEX
  8
0
  5
7B42
 10
0.0115536
 20
-0.180889
 30
0.000000
  70
    32
  0
VERTEX
  8
0
  5
7B43
 10
0.0125085
 20
-0.180852
 30
0.000000
  70
    32
  0
VERTEX
  8
0
  5
7B44
 10
0.0134616
 20
-0.180813
 30
0.000000
  70
    32
  0
VERTEX
  8
0
  5
7B45
 10
0.0144126
 20
-0.180770
 30
0.000000
  70
    32
  0
VERTEX
  8
0
  5
7B46
 10
0.0153614
 20
-0.180724
 30
0.000000
  70
    32
  0
VERTEX
  8
0
  5
7B47
 10
0.0163080
 20
-0.180676
 30
0.000000
  70
    32
  0
VERTEX
  8
0
  5
7B48
 10
0.0172521
 20
-0.180624
 30
0.000000
  70
    32
  0
VERTEX
  8
0
  5
7B49
 10
0.0181936
 20
-0.180570
 30
0.000000
  70
    32
  0
VERTEX
  8
0
  5
7B4A
 10
0.0191323
 20
-0.180512
 30
0.000000
  70
    32
  0
VERTEX
  8
0
  5
7B4B
 10
0.0200682
 20
-0.180452
 30
0.000000
  70
    32
  0
VERTEX
  8
0
  5
7B4C
 10
0.0210010
 20
-0.180389
 30
0.000000
  70
    32
  0
VERTEX
  8
0
  5
7B4D
 10
0.0219307
 20
-0.180323
 30
0.000000
  70
    32
  0
VERTEX
  8
0
  5
7B4E
 10
0.0228571
 20
-0.180255
 30
0.000000
  70
    32
  0
VERTEX
  8
0
  5
7B4F
 10
0.0237800
 20
-0.180183
 30
0.000000
  70
    32
  0
VERTEX
  8
0
  5
7B50
 10
0.0246993
 20
-0.180109
 30
0.000000
  70
    32
  0
VERTEX
  8
0
  5
7B51
 10
0.0256150
 20
-0.180032
 30
0.000000
  70
    32
  0
VERTEX
  8
0
  5
7B52
 10
0.0265268
 20
-0.179952
 30
0.000000
  70
    32
  0
VERTEX
  8
0
  5
7B53
 10
0.0274345
 20
-0.179869
 30
0.000000
  70
    32
  0
VERTEX
  8
0
  5
7B54
 10
0.0283382
 20
-0.179783
 30
0.000000
  70
    32
  0
VERTEX
  8
0
  5
7B55
 10
0.0292376
 20
-0.179695
 30
0.000000
  70
    32
  0
VERTEX
  8
0
  5
7B56
 10
0.0301326
 20
-0.179604
 30
0.000000
  70
    32
  0
VERTEX
  8
0
  5
7B57
 10
0.0310230
 20
-0.179510
 30
0.000000
  70
    32
  0
VERTEX
  8
0
  5
7B58
 10
0.0319088
 20
-0.179414
 30
0.000000
  70
    32
  0
VERTEX
  8
0
  5
7B59
 10
0.0327897
 20
-0.179314
 30
0.000000
  70
    32
  0
VERTEX
  8
0
  5
7B5A
 10
0.0336658
 20
-0.179212
 30
0.000000
  70
    32
  0
VERTEX
  8
0
  5
7B5B
 10
0.0345367
 20
-0.179108
 30
0.000000
  70
    32
  0
VERTEX
  8
0
  5
7B5C
 10
0.0354025
 20
-0.179000
 30
0.000000
  70
    32
  0
VERTEX
  8
0
  5
7B5D
 10
0.0362629
 20
-0.178891
 30
0.000000
  70
    32
  0
VERTEX
  8
0
  5
7B5E
 10
0.0371179
 20
-0.178778
 30
0.000000
  70
    32
  0
VERTEX
  8
0
  5
7B5F
 10
0.0379672
 20
-0.178663
 30
0.000000
  70
    32
  0
VERTEX
  8
0
  5
7B60
 10
0.0388109
 20
-0.178545
 30
0.000000
  70
    32
  0
VERTEX
  8
0
  5
7B61
 10
0.0396487
 20
-0.178425
 30
0.000000
  70
    32
  0
VERTEX
  8
0
  5
7B62
 10
0.0404805
 20
-0.178302
 30
0.000000
  70
    32
  0
VERTEX
  8
0
  5
7B63
 10
0.0413063
 20
-0.178176
 30
0.000000
  70
    32
  0
VERTEX
  8
0
  5
7B64
 10
0.0421258
 20
-0.178048
 30
0.000000
  70
    32
  0
VERTEX
  8
0
  5
7B65
 10
0.0429390
 20
-0.177918
 30
0.000000
  70
    32
  0
VERTEX
  8
0
  5
7B66
 10
0.0437457
 20
-0.177785
 30
0.000000
  70
    32
  0
VERTEX
  8
0
  5
7B67
 10
0.0445458
 20
-0.177649
 30
0.000000
  70
    32
  0
VERTEX
  8
0
  5
7B68
 10
0.0453392
 20
-0.177512
 30
0.000000
  70
    32
  0
VERTEX
  8
0
  5
7B69
 10
0.0461258
 20
-0.177371
 30
0.000000
  70
    32
  0
VERTEX
  8
0
  5
7B6A
 10
0.0469055
 20
-0.177228
 30
0.000000
  70
    32
  0
VERTEX
  8
0
  5
7B6B
 10
0.0476780
 20
-0.177083
 30
0.000000
  70
    32
  0
VERTEX
  8
0
  5
7B6C
 10
0.0484434
 20
-0.176936
 30
0.000000
  70
    32
  0
VERTEX
  8
0
  5
7B6D
 10
0.0492015
 20
-0.176786
 30
0.000000
  70
    32
  0
VERTEX
  8
0
  5
7B6E
 10
0.0499522
 20
-0.176634
 30
0.000000
  70
    32
  0
VERTEX
  8
0
  5
7B6F
 10
0.0506954
 20
-0.176480
 30
0.000000
  70
    32
  0
VERTEX
  8
0
  5
7B70
 10
0.0514309
 20
-0.176323
 30
0.000000
  70
    32
  0
VERTEX
  8
0
  5
7B71
 10
0.0521587
 20
-0.176164
 30
0.000000
  70
    32
  0
VERTEX
  8
0
  5
7B72
 10
0.0528787
 20
-0.176003
 30
0.000000
  70
    32
  0
VERTEX
  8
0
  5
7B73
 10
0.0535906
 20
-0.175840
 30
0.000000
  70
    32
  0
VERTEX
  8
0
  5
7B74
 10
0.0542945
 20
-0.175674
 30
0.000000
  70
    32
  0
VERTEX
  8
0
  5
7B75
 10
0.0549903
 20
-0.175507
 30
0.000000
  70
    32
  0
VERTEX
  8
0
  5
7B76
 10
0.0556777
 20
-0.175337
 30
0.000000
  70
    32
  0
VERTEX
  8
0
  5
7B77
 10
0.0563568
 20
-0.175165
 30
0.000000
  70
    32
  0
VERTEX
  8
0
  5
7B78
 10
0.0570273
 20
-0.174991
 30
0.000000
  70
    32
  0
VERTEX
  8
0
  5
7B79
 10
0.0576893
 20
-0.174815
 30
0.000000
  70
    32
  0
VERTEX
  8
0
  5
7B7A
 10
0.0583426
 20
-0.174637
 30
0.000000
  70
    32
  0
VERTEX
  8
0
  5
7B7B
 10
0.0589871
 20
-0.174457
 30
0.000000
  70
    32
  0
VERTEX
  8
0
  5
7B7C
 10
0.0596227
 20
-0.174275
 30
0.000000
  70
    32
  0
VERTEX
  8
0
  5
7B7D
 10
0.0602494
 20
-0.174091
 30
0.000000
  70
    32
  0
VERTEX
  8
0
  5
7B7E
 10
0.0608670
 20
-0.173905
 30
0.000000
  70
    32
  0
VERTEX
  8
0
  5
7B7F
 10
0.0614754
 20
-0.173718
 30
0.000000
  70
    32
  0
VERTEX
  8
0
  5
7B80
 10
0.0620745
 20
-0.173528
 30
0.000000
  70
    32
  0
VERTEX
  8
0
  5
7B81
 10
0.0626643
 20
-0.173337
 30
0.000000
  70
    32
  0
VERTEX
  8
0
  5
7B82
 10
0.0632447
 20
-0.173144
 30
0.000000
  70
    32
  0
VERTEX
  8
0
  5
7B83
 10
0.0638155
 20
-0.172949
 30
0.000000
  70
    32
  0
VERTEX
  8
0
  5
7B84
 10
0.0643768
 20
-0.172752
 30
0.000000
  70
    32
  0
VERTEX
  8
0
  5
7B85
 10
0.0649283
 20
-0.172554
 30
0.000000
  70
    32
  0
VERTEX
  8
0
  5
7B86
 10
0.0654700
 20
-0.172354
 30
0.000000
  70
    32
  0
VERTEX
  8
0
  5
7B87
 10
0.0660019
 20
-0.172152
 30
0.000000
  70
    32
  0
VERTEX
  8
0
  5
7B88
 10
0.0665239
 20
-0.171949
 30
0.000000
  70
    32
  0
VERTEX
  8
0
  5
7B89
 10
0.0670358
 20
-0.171744
 30
0.000000
  70
    32
  0
VERTEX
  8
0
  5
7B8A
 10
0.0675377
 20
-0.171537
 30
0.000000
  70
    32
  0
VERTEX
  8
0
  5
7B8B
 10
0.0680294
 20
-0.171329
 30
0.000000
  70
    32
  0
VERTEX
  8
0
  5
7B8C
 10
0.0685108
 20
-0.171120
 30
0.000000
  70
    32
  0
VERTEX
  8
0
  5
7B8D
 10
0.0689819
 20
-0.170909
 30
0.000000
  70
    32
  0
VERTEX
  8
0
  5
7B8E
 10
0.0694426
 20
-0.170697
 30
0.000000
  70
    32
  0
VERTEX
  8
0
  5
7B8F
 10
0.0698929
 20
-0.170483
 30
0.000000
  70
    32
  0
VERTEX
  8
0
  5
7B90
 10
0.0703326
 20
-0.170268
 30
0.000000
  70
    32
  0
VERTEX
  8
0
  5
7B91
 10
0.0707618
 20
-0.170052
 30
0.000000
  70
    32
  0
VERTEX
  8
0
  5
7B92
 10
0.0711803
 20
-0.169834
 30
0.000000
  70
    32
  0
VERTEX
  8
0
  5
7B93
 10
0.0715880
 20
-0.169615
 30
0.000000
  70
    32
  0
VERTEX
  8
0
  5
7B94
 10
0.0719850
 20
-0.169395
 30
0.000000
  70
    32
  0
VERTEX
  8
0
  5
7B95
 10
0.0723712
 20
-0.169173
 30
0.000000
  70
    32
  0
VERTEX
  8
0
  5
7B96
 10
0.0727464
 20
-0.168950
 30
0.000000
  70
    32
  0
VERTEX
  8
0
  5
7B97
 10
0.0731107
 20
-0.168727
 30
0.000000
  70
    32
  0
VERTEX
  8
0
  5
7B98
 10
0.0734640
 20
-0.168502
 30
0.000000
  70
    32
  0
VERTEX
  8
0
  5
7B99
 10
0.0738062
 20
-0.168276
 30
0.000000
  70
    32
  0
VERTEX
  8
0
  5
7B9A
 10
0.0741373
 20
-0.168049
 30
0.000000
  70
    32
  0
VERTEX
  8
0
  5
7B9B
 10
0.0744573
 20
-0.167821
 30
0.000000
  70
    32
  0
VERTEX
  8
0
  5
7B9C
 10
0.0747660
 20
-0.167592
 30
0.000000
  70
    32
  0
VERTEX
  8
0
  5
7B9D
 10
0.0750635
 20
-0.167362
 30
0.000000
  70
    32
  0
VERTEX
  8
0
  5
7B9E
 10
0.0753496
 20
-0.167132
 30
0.000000
  70
    32
  0
VERTEX
  8
0
  5
7B9F
 10
0.0756245
 20
-0.166900
 30
0.000000
  70
    32
  0
VERTEX
  8
0
  5
7BA0
 10
0.0758879
 20
-0.166668
 30
0.000000
  70
    32
  0
VERTEX
  8
0
  5
7BA1
 10
0.0761399
 20
-0.166434
 30
0.000000
  70
    32
  0
VERTEX
  8
0
  5
7BA2
 10
0.0763804
 20
-0.166200
 30
0.000000
  70
    32
  0
VERTEX
  8
0
  5
7BA3
 10
0.0766094
 20
-0.165966
 30
0.000000
  70
    32
  0
VERTEX
  8
0
  5
7BA4
 10
0.0768269
 20
-0.165730
 30
0.000000
  70
    32
  0
VERTEX
  8
0
  5
7BA5
 10
0.0770329
 20
-0.165494
 30
0.000000
  70
    32
  0
VERTEX
  8
0
  5
7BA6
 10
0.0772272
 20
-0.165258
 30
0.000000
  70
    32
  0
VERTEX
  8
0
  5
7BA7
 10
0.0774099
 20
-0.165020
 30
0.000000
  70
    32
  0
VERTEX
  8
0
  5
7BA8
 10
0.0775809
 20
-0.164783
 30
0.000000
  70
    32
  0
VERTEX
  8
0
  5
7BA9
 10
0.0777403
 20
-0.164544
 30
0.000000
  70
    32
  0
VERTEX
  8
0
  5
7BAA
 10
0.0778879
 20
-0.164306
 30
0.000000
  70
    32
  0
VERTEX
  8
0
  5
7BAB
 10
0.0780238
 20
-0.164067
 30
0.000000
  70
    32
  0
VERTEX
  8
0
  5
7BAC
 10
0.0781480
 20
-0.163827
 30
0.000000
  70
    32
  0
VERTEX
  8
0
  5
7BAD
 10
0.0782604
 20
-0.163587
 30
0.000000
  70
    32
  0
VERTEX
  8
0
  5
7BAE
 10
0.0783610
 20
-0.163347
 30
0.000000
  70
    32
  0
VERTEX
  8
0
  5
7BAF
 10
0.0784498
 20
-0.163106
 30
0.000000
  70
    32
  0
VERTEX
  8
0
  5
7BB0
 10
0.0785268
 20
-0.162865
 30
0.000000
  70
    32
  0
VERTEX
  8
0
  5
7BB1
 10
0.0785920
 20
-0.162624
 30
0.000000
  70
    32
  0
VERTEX
  8
0
  5
7BB2
 10
0.0786453
 20
-0.162383
 30
0.000000
  70
    32
  0
VERTEX
  8
0
  5
7BB3
 10
0.0786868
 20
-0.162142
 30
0.000000
  70
    32
  0
VERTEX
  8
0
  5
7BB4
 10
0.0787164
 20
-0.161900
 30
0.000000
  70
    32
  0
VERTEX
  8
0
  5
7BB5
 10
0.0787342
 20
-0.161659
 30
0.000000
  70
    32
  0
VERTEX
  8
0
  5
7BB6
 10
0.0787402
 20
-0.161417
 30
0.000000
  70
    32
  0
SEQEND
  8
0
  5
7BB7
  0
LINE
  5
74A1
  8
0
 10
0.0000000000000036
 20
-0.1811023634000008
 30
0.0
 11
0.1771653555000263
 21
-0.1811023634000008
 31
0.0
  0
LINE
  5
74A2
  8
0
 10
-0.0984251974999957
 20
0.1456692922999991
 30
0.0
 11
0.0984251975000028
 21
0.1456692922999991
 31
0.0
  0
LINE
  5
74A3
  8
0
 10
-0.0826771658999981
 20
0.039370078999994
 30
0.0
 11
0.0984251975000028
 21
0.039370078999994
 31
0.0
  0
LINE
  5
74A5
  8
0
 10
0.0787401579999987
 20
0.1653543318000034
 30
0.0
 11
0.0984251975000028
 21
0.1456692922999991
 31
0.0
  0
LINE
  5
74A6
  8
0
 10
0.0984251975000028
 20
0.039370078999994
 30
0.0
 11
0.0984251975000028
 21
0.1456692922999991
 31
0.0
  0
LINE
  5
74A7
  8
0
 10
0.0826771659000052
 20
0.0
 30
0.0
 11
0.0826771659000052
 21
0.1614173238999969
 31
0.0
  0
LINE
  5
74AE
  8
0
 10
-0.1574803160000009
 20
-0.1614173238999967
 30
0.0
 11
-0.1574803160000009
 21
0.0
 31
0.0
  0
POLYLINE
  5
74AF
  8
0
 10
-0.1574803160000003
 20
-0.1614173238999967
 30
0.0
 66
     1
 70
     8
  0
VERTEX
  8
0
  5
7BB8
 10
-0.157480
 20
-0.161417
 30
0.000000
  70
    32
  0
VERTEX
  8
0
  5
7BB9
 10
-0.157477
 20
-0.161659
 30
0.000000
  70
    32
  0
VERTEX
  8
0
  5
7BBA
 10
-0.157468
 20
-0.161900
 30
0.000000
  70
    32
  0
VERTEX
  8
0
  5
7BBB
 10
-0.157454
 20
-0.162142
 30
0.000000
  70
    32
  0
VERTEX
  8
0
  5
7BBC
 10
-0.157433
 20
-0.162383
 30
0.000000
  70
    32
  0
VERTEX
  8
0
  5
7BBD
 10
-0.157406
 20
-0.162624
 30
0.000000
  70
    32
  0
VERTEX
  8
0
  5
7BBE
 10
-0.157374
 20
-0.162865
 30
0.000000
  70
    32
  0
VERTEX
  8
0
  5
7BBF
 10
-0.157335
 20
-0.163106
 30
0.000000
  70
    32
  0
VERTEX
  8
0
  5
7BC0
 10
-0.157291
 20
-0.163347
 30
0.000000
  70
    32
  0
VERTEX
  8
0
  5
7BC1
 10
-0.157240
 20
-0.163587
 30
0.000000
  70
    32
  0
VERTEX
  8
0
  5
7BC2
 10
-0.157184
 20
-0.163827
 30
0.000000
  70
    32
  0
VERTEX
  8
0
  5
7BC3
 10
-0.157122
 20
-0.164067
 30
0.000000
  70
    32
  0
VERTEX
  8
0
  5
7BC4
 10
-0.157054
 20
-0.164306
 30
0.000000
  70
    32
  0
VERTEX
  8
0
  5
7BC5
 10
-0.156980
 20
-0.164544
 30
0.000000
  70
    32
  0
VERTEX
  8
0
  5
7BC6
 10
-0.156901
 20
-0.164783
 30
0.000000
  70
    32
  0
VERTEX
  8
0
  5
7BC7
 10
-0.156815
 20
-0.165020
 30
0.000000
  70
    32
  0
VERTEX
  8
0
  5
7BC8
 10
-0.156724
 20
-0.165258
 30
0.000000
  70
    32
  0
VERTEX
  8
0
  5
7BC9
 10
-0.156627
 20
-0.165494
 30
0.000000
  70
    32
  0
VERTEX
  8
0
  5
7BCA
 10
-0.156524
 20
-0.165730
 30
0.000000
  70
    32
  0
VERTEX
  8
0
  5
7BCB
 10
-0.156415
 20
-0.165966
 30
0.000000
  70
    32
  0
VERTEX
  8
0
  5
7BCC
 10
-0.156300
 20
-0.166200
 30
0.000000
  70
    32
  0
VERTEX
  8
0
  5
7BCD
 10
-0.156180
 20
-0.166434
 30
0.000000
  70
    32
  0
VERTEX
  8
0
  5
7BCE
 10
-0.156054
 20
-0.166668
 30
0.000000
  70
    32
  0
VERTEX
  8
0
  5
7BCF
 10
-0.155922
 20
-0.166900
 30
0.000000
  70
    32
  0
VERTEX
  8
0
  5
7BD0
 10
-0.155785
 20
-0.167132
 30
0.000000
  70
    32
  0
VERTEX
  8
0
  5
7BD1
 10
-0.155642
 20
-0.167362
 30
0.000000
  70
    32
  0
VERTEX
  8
0
  5
7BD2
 10
-0.155493
 20
-0.167592
 30
0.000000
  70
    32
  0
VERTEX
  8
0
  5
7BD3
 10
-0.155339
 20
-0.167821
 30
0.000000
  70
    32
  0
VERTEX
  8
0
  5
7BD4
 10
-0.155179
 20
-0.168049
 30
0.000000
  70
    32
  0
VERTEX
  8
0
  5
7BD5
 10
-0.155013
 20
-0.168276
 30
0.000000
  70
    32
  0
VERTEX
  8
0
  5
7BD6
 10
-0.154842
 20
-0.168502
 30
0.000000
  70
    32
  0
VERTEX
  8
0
  5
7BD7
 10
-0.154666
 20
-0.168727
 30
0.000000
  70
    32
  0
VERTEX
  8
0
  5
7BD8
 10
-0.154483
 20
-0.168950
 30
0.000000
  70
    32
  0
VERTEX
  8
0
  5
7BD9
 10
-0.154296
 20
-0.169173
 30
0.000000
  70
    32
  0
VERTEX
  8
0
  5
7BDA
 10
-0.154103
 20
-0.169395
 30
0.000000
  70
    32
  0
VERTEX
  8
0
  5
7BDB
 10
-0.153904
 20
-0.169615
 30
0.000000
  70
    32
  0
VERTEX
  8
0
  5
7BDC
 10
-0.153700
 20
-0.169834
 30
0.000000
  70
    32
  0
VERTEX
  8
0
  5
7BDD
 10
-0.153491
 20
-0.170052
 30
0.000000
  70
    32
  0
VERTEX
  8
0
  5
7BDE
 10
-0.153277
 20
-0.170268
 30
0.000000
  70
    32
  0
VERTEX
  8
0
  5
7BDF
 10
-0.153057
 20
-0.170483
 30
0.000000
  70
    32
  0
VERTEX
  8
0
  5
7BE0
 10
-0.152832
 20
-0.170697
 30
0.000000
  70
    32
  0
VERTEX
  8
0
  5
7BE1
 10
-0.152601
 20
-0.170909
 30
0.000000
  70
    32
  0
VERTEX
  8
0
  5
7BE2
 10
-0.152366
 20
-0.171120
 30
0.000000
  70
    32
  0
VERTEX
  8
0
  5
7BE3
 10
-0.152125
 20
-0.171329
 30
0.000000
  70
    32
  0
VERTEX
  8
0
  5
7BE4
 10
-0.151879
 20
-0.171537
 30
0.000000
  70
    32
  0
VERTEX
  8
0
  5
7BE5
 10
-0.151628
 20
-0.171744
 30
0.000000
  70
    32
  0
VERTEX
  8
0
  5
7BE6
 10
-0.151372
 20
-0.171949
 30
0.000000
  70
    32
  0
VERTEX
  8
0
  5
7BE7
 10
-0.151111
 20
-0.172152
 30
0.000000
  70
    32
  0
VERTEX
  8
0
  5
7BE8
 10
-0.150845
 20
-0.172354
 30
0.000000
  70
    32
  0
VERTEX
  8
0
  5
7BE9
 10
-0.150574
 20
-0.172554
 30
0.000000
  70
    32
  0
VERTEX
  8
0
  5
7BEA
 10
-0.150299
 20
-0.172752
 30
0.000000
  70
    32
  0
VERTEX
  8
0
  5
7BEB
 10
-0.150018
 20
-0.172949
 30
0.000000
  70
    32
  0
VERTEX
  8
0
  5
7BEC
 10
-0.149733
 20
-0.173144
 30
0.000000
  70
    32
  0
VERTEX
  8
0
  5
7BED
 10
-0.149442
 20
-0.173337
 30
0.000000
  70
    32
  0
VERTEX
  8
0
  5
7BEE
 10
-0.149147
 20
-0.173528
 30
0.000000
  70
    32
  0
VERTEX
  8
0
  5
7BEF
 10
-0.148848
 20
-0.173718
 30
0.000000
  70
    32
  0
VERTEX
  8
0
  5
7BF0
 10
-0.148544
 20
-0.173905
 30
0.000000
  70
    32
  0
VERTEX
  8
0
  5
7BF1
 10
-0.148235
 20
-0.174091
 30
0.000000
  70
    32
  0
VERTEX
  8
0
  5
7BF2
 10
-0.147922
 20
-0.174275
 30
0.000000
  70
    32
  0
VERTEX
  8
0
  5
7BF3
 10
-0.147604
 20
-0.174457
 30
0.000000
  70
    32
  0
VERTEX
  8
0
  5
7BF4
 10
-0.147282
 20
-0.174637
 30
0.000000
  70
    32
  0
VERTEX
  8
0
  5
7BF5
 10
-0.146955
 20
-0.174815
 30
0.000000
  70
    32
  0
VERTEX
  8
0
  5
7BF6
 10
-0.146624
 20
-0.174991
 30
0.000000
  70
    32
  0
VERTEX
  8
0
  5
7BF7
 10
-0.146289
 20
-0.175165
 30
0.000000
  70
    32
  0
VERTEX
  8
0
  5
7BF8
 10
-0.145949
 20
-0.175337
 30
0.000000
  70
    32
  0
VERTEX
  8
0
  5
7BF9
 10
-0.145605
 20
-0.175507
 30
0.000000
  70
    32
  0
VERTEX
  8
0
  5
7BFA
 10
-0.145258
 20
-0.175674
 30
0.000000
  70
    32
  0
VERTEX
  8
0
  5
7BFB
 10
-0.144906
 20
-0.175840
 30
0.000000
  70
    32
  0
VERTEX
  8
0
  5
7BFC
 10
-0.144550
 20
-0.176003
 30
0.000000
  70
    32
  0
VERTEX
  8
0
  5
7BFD
 10
-0.144190
 20
-0.176164
 30
0.000000
  70
    32
  0
VERTEX
  8
0
  5
7BFE
 10
-0.143826
 20
-0.176323
 30
0.000000
  70
    32
  0
VERTEX
  8
0
  5
7BFF
 10
-0.143458
 20
-0.176480
 30
0.000000
  70
    32
  0
VERTEX
  8
0
  5
7C00
 10
-0.143086
 20
-0.176634
 30
0.000000
  70
    32
  0
VERTEX
  8
0
  5
7C01
 10
-0.142711
 20
-0.176786
 30
0.000000
  70
    32
  0
VERTEX
  8
0
  5
7C02
 10
-0.142332
 20
-0.176936
 30
0.000000
  70
    32
  0
VERTEX
  8
0
  5
7C03
 10
-0.141949
 20
-0.177083
 30
0.000000
  70
    32
  0
VERTEX
  8
0
  5
7C04
 10
-0.141563
 20
-0.177228
 30
0.000000
  70
    32
  0
VERTEX
  8
0
  5
7C05
 10
-0.141173
 20
-0.177371
 30
0.000000
  70
    32
  0
VERTEX
  8
0
  5
7C06
 10
-0.140780
 20
-0.177512
 30
0.000000
  70
    32
  0
VERTEX
  8
0
  5
7C07
 10
-0.140383
 20
-0.177649
 30
0.000000
  70
    32
  0
VERTEX
  8
0
  5
7C08
 10
-0.139983
 20
-0.177785
 30
0.000000
  70
    32
  0
VERTEX
  8
0
  5
7C09
 10
-0.139580
 20
-0.177918
 30
0.000000
  70
    32
  0
VERTEX
  8
0
  5
7C0A
 10
-0.139173
 20
-0.178048
 30
0.000000
  70
    32
  0
VERTEX
  8
0
  5
7C0B
 10
-0.138763
 20
-0.178176
 30
0.000000
  70
    32
  0
VERTEX
  8
0
  5
7C0C
 10
-0.138351
 20
-0.178302
 30
0.000000
  70
    32
  0
VERTEX
  8
0
  5
7C0D
 10
-0.137935
 20
-0.178425
 30
0.000000
  70
    32
  0
VERTEX
  8
0
  5
7C0E
 10
-0.137516
 20
-0.178545
 30
0.000000
  70
    32
  0
VERTEX
  8
0
  5
7C0F
 10
-0.137094
 20
-0.178663
 30
0.000000
  70
    32
  0
VERTEX
  8
0
  5
7C10
 10
-0.136669
 20
-0.178778
 30
0.000000
  70
    32
  0
VERTEX
  8
0
  5
7C11
 10
-0.136242
 20
-0.178891
 30
0.000000
  70
    32
  0
VERTEX
  8
0
  5
7C12
 10
-0.135811
 20
-0.179000
 30
0.000000
  70
    32
  0
VERTEX
  8
0
  5
7C13
 10
-0.135379
 20
-0.179108
 30
0.000000
  70
    32
  0
VERTEX
  8
0
  5
7C14
 10
-0.134943
 20
-0.179212
 30
0.000000
  70
    32
  0
VERTEX
  8
0
  5
7C15
 10
-0.134505
 20
-0.179314
 30
0.000000
  70
    32
  0
VERTEX
  8
0
  5
7C16
 10
-0.134065
 20
-0.179414
 30
0.000000
  70
    32
  0
VERTEX
  8
0
  5
7C17
 10
-0.133622
 20
-0.179510
 30
0.000000
  70
    32
  0
VERTEX
  8
0
  5
7C18
 10
-0.133177
 20
-0.179604
 30
0.000000
  70
    32
  0
VERTEX
  8
0
  5
7C19
 10
-0.132729
 20
-0.179695
 30
0.000000
  70
    32
  0
VERTEX
  8
0
  5
7C1A
 10
-0.132279
 20
-0.179783
 30
0.000000
  70
    32
  0
VERTEX
  8
0
  5
7C1B
 10
-0.131828
 20
-0.179869
 30
0.000000
  70
    32
  0
VERTEX
  8
0
  5
7C1C
 10
-0.131374
 20
-0.179952
 30
0.000000
  70
    32
  0
VERTEX
  8
0
  5
7C1D
 10
-0.130918
 20
-0.180032
 30
0.000000
  70
    32
  0
VERTEX
  8
0
  5
7C1E
 10
-0.130460
 20
-0.180109
 30
0.000000
  70
    32
  0
VERTEX
  8
0
  5
7C1F
 10
-0.130000
 20
-0.180183
 30
0.000000
  70
    32
  0
VERTEX
  8
0
  5
7C20
 10
-0.129539
 20
-0.180255
 30
0.000000
  70
    32
  0
VERTEX
  8
0
  5
7C21
 10
-0.129076
 20
-0.180323
 30
0.000000
  70
    32
  0
VERTEX
  8
0
  5
7C22
 10
-0.128611
 20
-0.180389
 30
0.000000
  70
    32
  0
VERTEX
  8
0
  5
7C23
 10
-0.128144
 20
-0.180452
 30
0.000000
  70
    32
  0
VERTEX
  8
0
  5
7C24
 10
-0.127676
 20
-0.180512
 30
0.000000
  70
    32
  0
VERTEX
  8
0
  5
7C25
 10
-0.127207
 20
-0.180570
 30
0.000000
  70
    32
  0
VERTEX
  8
0
  5
7C26
 10
-0.126736
 20
-0.180624
 30
0.000000
  70
    32
  0
VERTEX
  8
0
  5
7C27
 10
-0.126264
 20
-0.180676
 30
0.000000
  70
    32
  0
VERTEX
  8
0
  5
7C28
 10
-0.125791
 20
-0.180724
 30
0.000000
  70
    32
  0
VERTEX
  8
0
  5
7C29
 10
-0.125317
 20
-0.180770
 30
0.000000
  70
    32
  0
VERTEX
  8
0
  5
7C2A
 10
-0.124841
 20
-0.180813
 30
0.000000
  70
    32
  0
VERTEX
  8
0
  5
7C2B
 10
-0.124364
 20
-0.180852
 30
0.000000
  70
    32
  0
VERTEX
  8
0
  5
7C2C
 10
-0.123887
 20
-0.180889
 30
0.000000
  70
    32
  0
VERTEX
  8
0
  5
7C2D
 10
-0.123409
 20
-0.180923
 30
0.000000
  70
    32
  0
VERTEX
  8
0
  5
7C2E
 10
-0.122930
 20
-0.180954
 30
0.000000
  70
    32
  0
VERTEX
  8
0
  5
7C2F
 10
-0.122450
 20
-0.180982
 30
0.000000
  70
    32
  0
VERTEX
  8
0
  5
7C30
 10
-0.121969
 20
-0.181008
 30
0.000000
  70
    32
  0
VERTEX
  8
0
  5
7C31
 10
-0.121488
 20
-0.181030
 30
0.000000
  70
    32
  0
VERTEX
  8
0
  5
7C32
 10
-0.121006
 20
-0.181049
 30
0.000000
  70
    32
  0
VERTEX
  8
0
  5
7C33
 10
-0.120524
 20
-0.181065
 30
0.000000
  70
    32
  0
VERTEX
  8
0
  5
7C34
 10
-0.120042
 20
-0.181079
 30
0.000000
  70
    32
  0
VERTEX
  8
0
  5
7C35
 10
-0.119559
 20
-0.181089
 30
0.000000
  70
    32
  0
VERTEX
  8
0
  5
7C36
 10
-0.119076
 20
-0.181096
 30
0.000000
  70
    32
  0
VERTEX
  8
0
  5
7C37
 10
-0.118593
 20
-0.181101
 30
0.000000
  70
    32
  0
VERTEX
  8
0
  5
7C38
 10
-0.118110
 20
-0.181102
 30
0.000000
  70
    32
  0
SEQEND
  8
0
  5
7C39
  0
LINE
  5
74B0
  8
0
 10
-0.1771653554999765
 20
-0.1811023634000008
 30
0.0
 11
0.0000000000000036
 21
-0.1811023634000008
 31
0.0
  0
LINE
  5
74B1
  8
0
 10
-0.0826771658999981
 20
0.0
 30
0.0
 11
-0.0826771658999981
 21
0.1614173239000111
 31
0.0
  0
LINE
  5
74B2
  8
0
 10
-0.0984251974999957
 20
0.039370078999994
 30
0.0
 11
-0.0984251974999957
 21
0.1456692922999991
 31
0.0
  0
LINE
  5
74B3
  8
0
 10
-0.0984251974999957
 20
0.039370078999994
 30
0.0
 11
-0.0826771658999981
 21
0.039370078999994
 31
0.0
  0
LINE
  5
74B4
  8
0
 10
-0.1574803160000009
 20
0.0
 30
0.0
 11
0.1574803160000009
 21
0.0000000000000001
 31
0.0
  0
LINE
  5
74B5
  8
0
 10
-0.0984251974999957
 20
0.1456692922999991
 30
0.0
 11
-0.0787401579999987
 21
0.1653543318000034
 31
0.0
  0
LINE
  5
7705
  8
0
 10
-0.0787401579999987
 20
-0.1614173238999967
 30
0.0
 11
-0.0787401579999987
 21
0.0
 31
0.0
  0
POLYLINE
  5
7706
  8
0
 10
-0.0787401580000008
 20
-0.1614173238999967
 30
0.0
 66
     1
 70
     8
  0
VERTEX
  8
0
  5
7C3A
 10
-0.0787402
 20
-0.161417
 30
0.000000
  70
    32
  0
VERTEX
  8
0
  5
7C3B
 10
-0.0787520
 20
-0.161900
 30
0.000000
  70
    32
  0
VERTEX
  8
0
  5
7C3C
 10
-0.0787876
 20
-0.162383
 30
0.000000
  70
    32
  0
VERTEX
  8
0
  5
7C3D
 10
-0.0788468
 20
-0.162865
 30
0.000000
  70
    32
  0
VERTEX
  8
0
  5
7C3E
 10
-0.0789297
 20
-0.163347
 30
0.000000
  70
    32
  0
VERTEX
  8
0
  5
7C3F
 10
-0.0790362
 20
-0.163827
 30
0.000000
  70
    32
  0
VERTEX
  8
0
  5
7C40
 10
-0.0791663
 20
-0.164306
 30
0.000000
  70
    32
  0
VERTEX
  8
0
  5
7C41
 10
-0.0793198
 20
-0.164783
 30
0.000000
  70
    32
  0
VERTEX
  8
0
  5
7C42
 10
-0.0794966
 20
-0.165258
 30
0.000000
  70
    32
  0
VERTEX
  8
0
  5
7C43
 10
-0.0796968
 20
-0.165730
 30
0.000000
  70
    32
  0
VERTEX
  8
0
  5
7C44
 10
-0.0799200
 20
-0.166200
 30
0.000000
  70
    32
  0
VERTEX
  8
0
  5
7C45
 10
-0.0801663
 20
-0.166668
 30
0.000000
  70
    32
  0
VERTEX
  8
0
  5
7C46
 10
-0.0804354
 20
-0.167132
 30
0.000000
  70
    32
  0
VERTEX
  8
0
  5
7C47
 10
-0.0807272
 20
-0.167592
 30
0.000000
  70
    32
  0
VERTEX
  8
0
  5
7C48
 10
-0.0810416
 20
-0.168049
 30
0.000000
  70
    32
  0
VERTEX
  8
0
  5
7C49
 10
-0.0813782
 20
-0.168502
 30
0.000000
  70
    32
  0
VERTEX
  8
0
  5
7C4A
 10
-0.0817370
 20
-0.168950
 30
0.000000
  70
    32
  0
VERTEX
  8
0
  5
7C4B
 10
-0.0821177
 20
-0.169395
 30
0.000000
  70
    32
  0
VERTEX
  8
0
  5
7C4C
 10
-0.0825201
 20
-0.169834
 30
0.000000
  70
    32
  0
VERTEX
  8
0
  5
7C4D
 10
-0.0829439
 20
-0.170268
 30
0.000000
  70
    32
  0
VERTEX
  8
0
  5
7C4E
 10
-0.0833889
 20
-0.170697
 30
0.000000
  70
    32
  0
VERTEX
  8
0
  5
7C4F
 10
-0.0838548
 20
-0.171120
 30
0.000000
  70
    32
  0
VERTEX
  8
0
  5
7C50
 10
-0.0843414
 20
-0.171537
 30
0.000000
  70
    32
  0
VERTEX
  8
0
  5
7C51
 10
-0.0848483
 20
-0.171949
 30
0.000000
  70
    32
  0
VERTEX
  8
0
  5
7C52
 10
-0.0853752
 20
-0.172354
 30
0.000000
  70
    32
  0
VERTEX
  8
0
  5
7C53
 10
-0.0859219
 20
-0.172752
 30
0.000000
  70
    32
  0
VERTEX
  8
0
  5
7C54
 10
-0.0864879
 20
-0.173144
 30
0.000000
  70
    32
  0
VERTEX
  8
0
  5
7C55
 10
-0.0870730
 20
-0.173528
 30
0.000000
  70
    32
  0
VERTEX
  8
0
  5
7C56
 10
-0.0876768
 20
-0.173905
 30
0.000000
  70
    32
  0
VERTEX
  8
0
  5
7C57
 10
-0.0882989
 20
-0.174275
 30
0.000000
  70
    32
  0
VERTEX
  8
0
  5
7C58
 10
-0.0889389
 20
-0.174637
 30
0.000000
  70
    32
  0
VERTEX
  8
0
  5
7C59
 10
-0.0895966
 20
-0.174991
 30
0.000000
  70
    32
  0
VERTEX
  8
0
  5
7C5A
 10
-0.0902714
 20
-0.175337
 30
0.000000
  70
    32
  0
VERTEX
  8
0
  5
7C5B
 10
-0.0909630
 20
-0.175674
 30
0.000000
  70
    32
  0
VERTEX
  8
0
  5
7C5C
 10
-0.0916709
 20
-0.176003
 30
0.000000
  70
    32
  0
VERTEX
  8
0
  5
7C5D
 10
-0.0923948
 20
-0.176323
 30
0.000000
  70
    32
  0
VERTEX
  8
0
  5
7C5E
 10
-0.0931341
 20
-0.176634
 30
0.000000
  70
    32
  0
VERTEX
  8
0
  5
7C5F
 10
-0.0938885
 20
-0.176936
 30
0.000000
  70
    32
  0
VERTEX
  8
0
  5
7C60
 10
-0.0946575
 20
-0.177228
 30
0.000000
  70
    32
  0
VERTEX
  8
0
  5
7C61
 10
-0.0954406
 20
-0.177512
 30
0.000000
  70
    32
  0
VERTEX
  8
0
  5
7C62
 10
-0.0962374
 20
-0.177785
 30
0.000000
  70
    32
  0
VERTEX
  8
0
  5
7C63
 10
-0.0970473
 20
-0.178048
 30
0.000000
  70
    32
  0
VERTEX
  8
0
  5
7C64
 10
-0.0978700
 20
-0.178302
 30
0.000000
  70
    32
  0
VERTEX
  8
0
  5
7C65
 10
-0.0987048
 20
-0.178545
 30
0.000000
  70
    32
  0
VERTEX
  8
0
  5
7C66
 10
-0.0995513
 20
-0.178778
 30
0.000000
  70
    32
  0
VERTEX
  8
0
  5
7C67
 10
-0.100409
 20
-0.179000
 30
0.000000
  70
    32
  0
VERTEX
  8
0
  5
7C68
 10
-0.101277
 20
-0.179212
 30
0.000000
  70
    32
  0
VERTEX
  8
0
  5
7C69
 10
-0.102156
 20
-0.179414
 30
0.000000
  70
    32
  0
VERTEX
  8
0
  5
7C6A
 10
-0.103044
 20
-0.179604
 30
0.000000
  70
    32
  0
VERTEX
  8
0
  5
7C6B
 10
-0.103941
 20
-0.179783
 30
0.000000
  70
    32
  0
VERTEX
  8
0
  5
7C6C
 10
-0.104847
 20
-0.179952
 30
0.000000
  70
    32
  0
VERTEX
  8
0
  5
7C6D
 10
-0.105761
 20
-0.180109
 30
0.000000
  70
    32
  0
VERTEX
  8
0
  5
7C6E
 10
-0.106682
 20
-0.180255
 30
0.000000
  70
    32
  0
VERTEX
  8
0
  5
7C6F
 10
-0.107610
 20
-0.180389
 30
0.000000
  70
    32
  0
VERTEX
  8
0
  5
7C70
 10
-0.108544
 20
-0.180512
 30
0.000000
  70
    32
  0
VERTEX
  8
0
  5
7C71
 10
-0.109484
 20
-0.180624
 30
0.000000
  70
    32
  0
VERTEX
  8
0
  5
7C72
 10
-0.110430
 20
-0.180724
 30
0.000000
  70
    32
  0
VERTEX
  8
0
  5
7C73
 10
-0.111379
 20
-0.180813
 30
0.000000
  70
    32
  0
VERTEX
  8
0
  5
7C74
 10
-0.112333
 20
-0.180889
 30
0.000000
  70
    32
  0
VERTEX
  8
0
  5
7C75
 10
-0.113291
 20
-0.180954
 30
0.000000
  70
    32
  0
VERTEX
  8
0
  5
7C76
 10
-0.114251
 20
-0.181008
 30
0.000000
  70
    32
  0
VERTEX
  8
0
  5
7C77
 10
-0.115214
 20
-0.181049
 30
0.000000
  70
    32
  0
VERTEX
  8
0
  5
7C78
 10
-0.116178
 20
-0.181079
 30
0.000000
  70
    32
  0
VERTEX
  8
0
  5
7C79
 10
-0.117144
 20
-0.181096
 30
0.000000
  70
    32
  0
VERTEX
  8
0
  5
7C7A
 10
-0.118110
 20
-0.181102
 30
0.000000
  70
    32
  0
VERTEX
  8
0
  5
7C7B
 10
-0.119076
 20
-0.181096
 30
0.000000
  70
    32
  0
VERTEX
  8
0
  5
7C7C
 10
-0.120042
 20
-0.181079
 30
0.000000
  70
    32
  0
VERTEX
  8
0
  5
7C7D
 10
-0.121006
 20
-0.181049
 30
0.000000
  70
    32
  0
VERTEX
  8
0
  5
7C7E
 10
-0.121969
 20
-0.181008
 30
0.000000
  70
    32
  0
VERTEX
  8
0
  5
7C7F
 10
-0.122930
 20
-0.180954
 30
0.000000
  70
    32
  0
VERTEX
  8
0
  5
7C80
 10
-0.123887
 20
-0.180889
 30
0.000000
  70
    32
  0
VERTEX
  8
0
  5
7C81
 10
-0.124841
 20
-0.180813
 30
0.000000
  70
    32
  0
VERTEX
  8
0
  5
7C82
 10
-0.125791
 20
-0.180724
 30
0.000000
  70
    32
  0
VERTEX
  8
0
  5
7C83
 10
-0.126736
 20
-0.180624
 30
0.000000
  70
    32
  0
VERTEX
  8
0
  5
7C84
 10
-0.127676
 20
-0.180512
 30
0.000000
  70
    32
  0
VERTEX
  8
0
  5
7C85
 10
-0.128611
 20
-0.180389
 30
0.000000
  70
    32
  0
VERTEX
  8
0
  5
7C86
 10
-0.129539
 20
-0.180255
 30
0.000000
  70
    32
  0
VERTEX
  8
0
  5
7C87
 10
-0.130460
 20
-0.180109
 30
0.000000
  70
    32
  0
VERTEX
  8
0
  5
7C88
 10
-0.131374
 20
-0.179952
 30
0.000000
  70
    32
  0
VERTEX
  8
0
  5
7C89
 10
-0.132279
 20
-0.179783
 30
0.000000
  70
    32
  0
VERTEX
  8
0
  5
7C8A
 10
-0.133177
 20
-0.179604
 30
0.000000
  70
    32
  0
VERTEX
  8
0
  5
7C8B
 10
-0.134065
 20
-0.179414
 30
0.000000
  70
    32
  0
VERTEX
  8
0
  5
7C8C
 10
-0.134943
 20
-0.179212
 30
0.000000
  70
    32
  0
VERTEX
  8
0
  5
7C8D
 10
-0.135811
 20
-0.179000
 30
0.000000
  70
    32
  0
VERTEX
  8
0
  5
7C8E
 10
-0.136669
 20
-0.178778
 30
0.000000
  70
    32
  0
VERTEX
  8
0
  5
7C8F
 10
-0.137516
 20
-0.178545
 30
0.000000
  70
    32
  0
VERTEX
  8
0
  5
7C90
 10
-0.138351
 20
-0.178302
 30
0.000000
  70
    32
  0
VERTEX
  8
0
  5
7C91
 10
-0.139173
 20
-0.178048
 30
0.000000
  70
    32
  0
VERTEX
  8
0
  5
7C92
 10
-0.139983
 20
-0.177785
 30
0.000000
  70
    32
  0
VERTEX
  8
0
  5
7C93
 10
-0.140780
 20
-0.177512
 30
0.000000
  70
    32
  0
VERTEX
  8
0
  5
7C94
 10
-0.141563
 20
-0.177228
 30
0.000000
  70
    32
  0
VERTEX
  8
0
  5
7C95
 10
-0.142332
 20
-0.176936
 30
0.000000
  70
    32
  0
VERTEX
  8
0
  5
7C96
 10
-0.143086
 20
-0.176634
 30
0.000000
  70
    32
  0
VERTEX
  8
0
  5
7C97
 10
-0.143826
 20
-0.176323
 30
0.000000
  70
    32
  0
VERTEX
  8
0
  5
7C98
 10
-0.144550
 20
-0.176003
 30
0.000000
  70
    32
  0
VERTEX
  8
0
  5
7C99
 10
-0.145258
 20
-0.175674
 30
0.000000
  70
    32
  0
VERTEX
  8
0
  5
7C9A
 10
-0.145949
 20
-0.175337
 30
0.000000
  70
    32
  0
VERTEX
  8
0
  5
7C9B
 10
-0.146624
 20
-0.174991
 30
0.000000
  70
    32
  0
VERTEX
  8
0
  5
7C9C
 10
-0.147282
 20
-0.174637
 30
0.000000
  70
    32
  0
VERTEX
  8
0
  5
7C9D
 10
-0.147922
 20
-0.174275
 30
0.000000
  70
    32
  0
VERTEX
  8
0
  5
7C9E
 10
-0.148544
 20
-0.173905
 30
0.000000
  70
    32
  0
VERTEX
  8
0
  5
7C9F
 10
-0.149147
 20
-0.173528
 30
0.000000
  70
    32
  0
VERTEX
  8
0
  5
7CA0
 10
-0.149733
 20
-0.173144
 30
0.000000
  70
    32
  0
VERTEX
  8
0
  5
7CA1
 10
-0.150299
 20
-0.172752
 30
0.000000
  70
    32
  0
VERTEX
  8
0
  5
7CA2
 10
-0.150845
 20
-0.172354
 30
0.000000
  70
    32
  0
VERTEX
  8
0
  5
7CA3
 10
-0.151372
 20
-0.171949
 30
0.000000
  70
    32
  0
VERTEX
  8
0
  5
7CA4
 10
-0.151879
 20
-0.171537
 30
0.000000
  70
    32
  0
VERTEX
  8
0
  5
7CA5
 10
-0.152366
 20
-0.171120
 30
0.000000
  70
    32
  0
VERTEX
  8
0
  5
7CA6
 10
-0.152832
 20
-0.170697
 30
0.000000
  70
    32
  0
VERTEX
  8
0
  5
7CA7
 10
-0.153277
 20
-0.170268
 30
0.000000
  70
    32
  0
VERTEX
  8
0
  5
7CA8
 10
-0.153700
 20
-0.169834
 30
0.000000
  70
    32
  0
VERTEX
  8
0
  5
7CA9
 10
-0.154103
 20
-0.169395
 30
0.000000
  70
    32
  0
VERTEX
  8
0
  5
7CAA
 10
-0.154483
 20
-0.168950
 30
0.000000
  70
    32
  0
VERTEX
  8
0
  5
7CAB
 10
-0.154842
 20
-0.168502
 30
0.000000
  70
    32
  0
VERTEX
  8
0
  5
7CAC
 10
-0.155179
 20
-0.168049
 30
0.000000
  70
    32
  0
VERTEX
  8
0
  5
7CAD
 10
-0.155493
 20
-0.167592
 30
0.000000
  70
    32
  0
VERTEX
  8
0
  5
7CAE
 10
-0.155785
 20
-0.167132
 30
0.000000
  70
    32
  0
VERTEX
  8
0
  5
7CAF
 10
-0.156054
 20
-0.166668
 30
0.000000
  70
    32
  0
VERTEX
  8
0
  5
7CB0
 10
-0.156300
 20
-0.166200
 30
0.000000
  70
    32
  0
VERTEX
  8
0
  5
7CB1
 10
-0.156524
 20
-0.165730
 30
0.000000
  70
    32
  0
VERTEX
  8
0
  5
7CB2
 10
-0.156724
 20
-0.165258
 30
0.000000
  70
    32
  0
VERTEX
  8
0
  5
7CB3
 10
-0.156901
 20
-0.164783
 30
0.000000
  70
    32
  0
VERTEX
  8
0
  5
7CB4
 10
-0.157054
 20
-0.164306
 30
0.000000
  70
    32
  0
VERTEX
  8
0
  5
7CB5
 10
-0.157184
 20
-0.163827
 30
0.000000
  70
    32
  0
VERTEX
  8
0
  5
7CB6
 10
-0.157291
 20
-0.163347
 30
0.000000
  70
    32
  0
VERTEX
  8
0
  5
7CB7
 10
-0.157374
 20
-0.162865
 30
0.000000
  70
    32
  0
VERTEX
  8
0
  5
7CB8
 10
-0.157433
 20
-0.162383
 30
0.000000
  70
    32
  0
VERTEX
  8
0
  5
7CB9
 10
-0.157468
 20
-0.161900
 30
0.000000
  70
    32
  0
VERTEX
  8
0
  5
7CBA
 10
-0.157480
 20
-0.161417
 30
0.000000
  70
    32
  0
SEQEND
  8
0
  5
7CBB
  0
POLYLINE
  5
7707
  8
0
 10
0.0000000000000041
 20
-0.1811023633999848
 30
0.0
 66
     1
 70
     8
  0
VERTEX
  8
0
  5
7CBC
 10
4.08227e-015
 20
-0.181102
 30
0.000000
  70
    32
  0
VERTEX
  8
0
  5
7CBD
 10
-0.000966263
 20
-0.181101
 30
0.000000
  70
    32
  0
VERTEX
  8
0
  5
7CBE
 10
-0.00193238
 20
-0.181096
 30
0.000000
  70
    32
  0
VERTEX
  8
0
  5
7CBF
 10
-0.00289821
 20
-0.181089
 30
0.000000
  70
    32
  0
VERTEX
  8
0
  5
7CC0
 10
-0.00386360
 20
-0.181079
 30
0.000000
  70
    32
  0
VERTEX
  8
0
  5
7CC1
 10
-0.00482840
 20
-0.181065
 30
0.000000
  70
    32
  0
VERTEX
  8
0
  5
7CC2
 10
-0.00579249
 20
-0.181049
 30
0.000000
  70
    32
  0
VERTEX
  8
0
  5
7CC3
 10
-0.00675569
 20
-0.181030
 30
0.000000
  70
    32
  0
VERTEX
  8
0
  5
7CC4
 10
-0.00771789
 20
-0.181008
 30
0.000000
  70
    32
  0
VERTEX
  8
0
  5
7CC5
 10
-0.00867891
 20
-0.180982
 30
0.000000
  70
    32
  0
VERTEX
  8
0
  5
7CC6
 10
-0.00963864
 20
-0.180954
 30
0.000000
  70
    32
  0
VERTEX
  8
0
  5
7CC7
 10
-0.0105969
 20
-0.180923
 30
0.000000
  70
    32
  0
VERTEX
  8
0
  5
7CC8
 10
-0.0115536
 20
-0.180889
 30
0.000000
  70
    32
  0
VERTEX
  8
0
  5
7CC9
 10
-0.0125085
 20
-0.180852
 30
0.000000
  70
    32
  0
VERTEX
  8
0
  5
7CCA
 10
-0.0134616
 20
-0.180813
 30
0.000000
  70
    32
  0
VERTEX
  8
0
  5
7CCB
 10
-0.0144126
 20
-0.180770
 30
0.000000
  70
    32
  0
VERTEX
  8
0
  5
7CCC
 10
-0.0153614
 20
-0.180724
 30
0.000000
  70
    32
  0
VERTEX
  8
0
  5
7CCD
 10
-0.0163080
 20
-0.180676
 30
0.000000
  70
    32
  0
VERTEX
  8
0
  5
7CCE
 10
-0.0172521
 20
-0.180624
 30
0.000000
  70
    32
  0
VERTEX
  8
0
  5
7CCF
 10
-0.0181936
 20
-0.180570
 30
0.000000
  70
    32
  0
VERTEX
  8
0
  5
7CD0
 10
-0.0191323
 20
-0.180512
 30
0.000000
  70
    32
  0
VERTEX
  8
0
  5
7CD1
 10
-0.0200682
 20
-0.180452
 30
0.000000
  70
    32
  0
VERTEX
  8
0
  5
7CD2
 10
-0.0210010
 20
-0.180389
 30
0.000000
  70
    32
  0
VERTEX
  8
0
  5
7CD3
 10
-0.0219307
 20
-0.180323
 30
0.000000
  70
    32
  0
VERTEX
  8
0
  5
7CD4
 10
-0.0228571
 20
-0.180255
 30
0.000000
  70
    32
  0
VERTEX
  8
0
  5
7CD5
 10
-0.0237800
 20
-0.180183
 30
0.000000
  70
    32
  0
VERTEX
  8
0
  5
7CD6
 10
-0.0246993
 20
-0.180109
 30
0.000000
  70
    32
  0
VERTEX
  8
0
  5
7CD7
 10
-0.0256150
 20
-0.180032
 30
0.000000
  70
    32
  0
VERTEX
  8
0
  5
7CD8
 10
-0.0265268
 20
-0.179952
 30
0.000000
  70
    32
  0
VERTEX
  8
0
  5
7CD9
 10
-0.0274345
 20
-0.179869
 30
0.000000
  70
    32
  0
VERTEX
  8
0
  5
7CDA
 10
-0.0283382
 20
-0.179783
 30
0.000000
  70
    32
  0
VERTEX
  8
0
  5
7CDB
 10
-0.0292376
 20
-0.179695
 30
0.000000
  70
    32
  0
VERTEX
  8
0
  5
7CDC
 10
-0.0301326
 20
-0.179604
 30
0.000000
  70
    32
  0
VERTEX
  8
0
  5
7CDD
 10
-0.0310230
 20
-0.179510
 30
0.000000
  70
    32
  0
VERTEX
  8
0
  5
7CDE
 10
-0.0319088
 20
-0.179414
 30
0.000000
  70
    32
  0
VERTEX
  8
0
  5
7CDF
 10
-0.0327897
 20
-0.179314
 30
0.000000
  70
    32
  0
VERTEX
  8
0
  5
7CE0
 10
-0.0336658
 20
-0.179212
 30
0.000000
  70
    32
  0
VERTEX
  8
0
  5
7CE1
 10
-0.0345367
 20
-0.179108
 30
0.000000
  70
    32
  0
VERTEX
  8
0
  5
7CE2
 10
-0.0354025
 20
-0.179000
 30
0.000000
  70
    32
  0
VERTEX
  8
0
  5
7CE3
 10
-0.0362629
 20
-0.178891
 30
0.000000
  70
    32
  0
VERTEX
  8
0
  5
7CE4
 10
-0.0371179
 20
-0.178778
 30
0.000000
  70
    32
  0
VERTEX
  8
0
  5
7CE5
 10
-0.0379672
 20
-0.178663
 30
0.000000
  70
    32
  0
VERTEX
  8
0
  5
7CE6
 10
-0.0388109
 20
-0.178545
 30
0.000000
  70
    32
  0
VERTEX
  8
0
  5
7CE7
 10
-0.0396487
 20
-0.178425
 30
0.000000
  70
    32
  0
VERTEX
  8
0
  5
7CE8
 10
-0.0404805
 20
-0.178302
 30
0.000000
  70
    32
  0
VERTEX
  8
0
  5
7CE9
 10
-0.0413063
 20
-0.178176
 30
0.000000
  70
    32
  0
VERTEX
  8
0
  5
7CEA
 10
-0.0421258
 20
-0.178048
 30
0.000000
  70
    32
  0
VERTEX
  8
0
  5
7CEB
 10
-0.0429390
 20
-0.177918
 30
0.000000
  70
    32
  0
VERTEX
  8
0
  5
7CEC
 10
-0.0437457
 20
-0.177785
 30
0.000000
  70
    32
  0
VERTEX
  8
0
  5
7CED
 10
-0.0445458
 20
-0.177649
 30
0.000000
  70
    32
  0
VERTEX
  8
0
  5
7CEE
 10
-0.0453392
 20
-0.177512
 30
0.000000
  70
    32
  0
VERTEX
  8
0
  5
7CEF
 10
-0.0461258
 20
-0.177371
 30
0.000000
  70
    32
  0
VERTEX
  8
0
  5
7CF0
 10
-0.0469055
 20
-0.177228
 30
0.000000
  70
    32
  0
VERTEX
  8
0
  5
7CF1
 10
-0.0476780
 20
-0.177083
 30
0.000000
  70
    32
  0
VERTEX
  8
0
  5
7CF2
 10
-0.0484434
 20
-0.176936
 30
0.000000
  70
    32
  0
VERTEX
  8
0
  5
7CF3
 10
-0.0492015
 20
-0.176786
 30
0.000000
  70
    32
  0
VERTEX
  8
0
  5
7CF4
 10
-0.0499522
 20
-0.176634
 30
0.000000
  70
    32
  0
VERTEX
  8
0
  5
7CF5
 10
-0.0506954
 20
-0.176480
 30
0.000000
  70
    32
  0
VERTEX
  8
0
  5
7CF6
 10
-0.0514309
 20
-0.176323
 30
0.000000
  70
    32
  0
VERTEX
  8
0
  5
7CF7
 10
-0.0521587
 20
-0.176164
 30
0.000000
  70
    32
  0
VERTEX
  8
0
  5
7CF8
 10
-0.0528787
 20
-0.176003
 30
0.000000
  70
    32
  0
VERTEX
  8
0
  5
7CF9
 10
-0.0535906
 20
-0.175840
 30
0.000000
  70
    32
  0
VERTEX
  8
0
  5
7CFA
 10
-0.0542945
 20
-0.175674
 30
0.000000
  70
    32
  0
VERTEX
  8
0
  5
7CFB
 10
-0.0549903
 20
-0.175507
 30
0.000000
  70
    32
  0
VERTEX
  8
0
  5
7CFC
 10
-0.0556777
 20
-0.175337
 30
0.000000
  70
    32
  0
VERTEX
  8
0
  5
7CFD
 10
-0.0563568
 20
-0.175165
 30
0.000000
  70
    32
  0
VERTEX
  8
0
  5
7CFE
 10
-0.0570273
 20
-0.174991
 30
0.000000
  70
    32
  0
VERTEX
  8
0
  5
7CFF
 10
-0.0576893
 20
-0.174815
 30
0.000000
  70
    32
  0
VERTEX
  8
0
  5
7D00
 10
-0.0583426
 20
-0.174637
 30
0.000000
  70
    32
  0
VERTEX
  8
0
  5
7D01
 10
-0.0589871
 20
-0.174457
 30
0.000000
  70
    32
  0
VERTEX
  8
0
  5
7D02
 10
-0.0596227
 20
-0.174275
 30
0.000000
  70
    32
  0
VERTEX
  8
0
  5
7D03
 10
-0.0602494
 20
-0.174091
 30
0.000000
  70
    32
  0
VERTEX
  8
0
  5
7D04
 10
-0.0608670
 20
-0.173905
 30
0.000000
  70
    32
  0
VERTEX
  8
0
  5
7D05
 10
-0.0614754
 20
-0.173718
 30
0.000000
  70
    32
  0
VERTEX
  8
0
  5
7D06
 10
-0.0620745
 20
-0.173528
 30
0.000000
  70
    32
  0
VERTEX
  8
0
  5
7D07
 10
-0.0626643
 20
-0.173337
 30
0.000000
  70
    32
  0
VERTEX
  8
0
  5
7D08
 10
-0.0632447
 20
-0.173144
 30
0.000000
  70
    32
  0
VERTEX
  8
0
  5
7D09
 10
-0.0638155
 20
-0.172949
 30
0.000000
  70
    32
  0
VERTEX
  8
0
  5
7D0A
 10
-0.0643768
 20
-0.172752
 30
0.000000
  70
    32
  0
VERTEX
  8
0
  5
7D0B
 10
-0.0649283
 20
-0.172554
 30
0.000000
  70
    32
  0
VERTEX
  8
0
  5
7D0C
 10
-0.0654700
 20
-0.172354
 30
0.000000
  70
    32
  0
VERTEX
  8
0
  5
7D0D
 10
-0.0660019
 20
-0.172152
 30
0.000000
  70
    32
  0
VERTEX
  8
0
  5
7D0E
 10
-0.0665239
 20
-0.171949
 30
0.000000
  70
    32
  0
VERTEX
  8
0
  5
7D0F
 10
-0.0670358
 20
-0.171744
 30
0.000000
  70
    32
  0
VERTEX
  8
0
  5
7D10
 10
-0.0675377
 20
-0.171537
 30
0.000000
  70
    32
  0
VERTEX
  8
0
  5
7D11
 10
-0.0680294
 20
-0.171329
 30
0.000000
  70
    32
  0
VERTEX
  8
0
  5
7D12
 10
-0.0685108
 20
-0.171120
 30
0.000000
  70
    32
  0
VERTEX
  8
0
  5
7D13
 10
-0.0689819
 20
-0.170909
 30
0.000000
  70
    32
  0
VERTEX
  8
0
  5
7D14
 10
-0.0694426
 20
-0.170697
 30
0.000000
  70
    32
  0
VERTEX
  8
0
  5
7D15
 10
-0.0698929
 20
-0.170483
 30
0.000000
  70
    32
  0
VERTEX
  8
0
  5
7D16
 10
-0.0703326
 20
-0.170268
 30
0.000000
  70
    32
  0
VERTEX
  8
0
  5
7D17
 10
-0.0707618
 20
-0.170052
 30
0.000000
  70
    32
  0
VERTEX
  8
0
  5
7D18
 10
-0.0711803
 20
-0.169834
 30
0.000000
  70
    32
  0
VERTEX
  8
0
  5
7D19
 10
-0.0715880
 20
-0.169615
 30
0.000000
  70
    32
  0
VERTEX
  8
0
  5
7D1A
 10
-0.0719850
 20
-0.169395
 30
0.000000
  70
    32
  0
VERTEX
  8
0
  5
7D1B
 10
-0.0723712
 20
-0.169173
 30
0.000000
  70
    32
  0
VERTEX
  8
0
  5
7D1C
 10
-0.0727464
 20
-0.168950
 30
0.000000
  70
    32
  0
VERTEX
  8
0
  5
7D1D
 10
-0.0731107
 20
-0.168727
 30
0.000000
  70
    32
  0
VERTEX
  8
0
  5
7D1E
 10
-0.0734640
 20
-0.168502
 30
0.000000
  70
    32
  0
VERTEX
  8
0
  5
7D1F
 10
-0.0738062
 20
-0.168276
 30
0.000000
  70
    32
  0
VERTEX
  8
0
  5
7D20
 10
-0.0741373
 20
-0.168049
 30
0.000000
  70
    32
  0
VERTEX
  8
0
  5
7D21
 10
-0.0744573
 20
-0.167821
 30
0.000000
  70
    32
  0
VERTEX
  8
0
  5
7D22
 10
-0.0747660
 20
-0.167592
 30
0.000000
  70
    32
  0
VERTEX
  8
0
  5
7D23
 10
-0.0750635
 20
-0.167362
 30
0.000000
  70
    32
  0
VERTEX
  8
0
  5
7D24
 10
-0.0753496
 20
-0.167132
 30
0.000000
  70
    32
  0
VERTEX
  8
0
  5
7D25
 10
-0.0756245
 20
-0.166900
 30
0.000000
  70
    32
  0
VERTEX
  8
0
  5
7D26
 10
-0.0758879
 20
-0.166668
 30
0.000000
  70
    32
  0
VERTEX
  8
0
  5
7D27
 10
-0.0761399
 20
-0.166434
 30
0.000000
  70
    32
  0
VERTEX
  8
0
  5
7D28
 10
-0.0763804
 20
-0.166200
 30
0.000000
  70
    32
  0
VERTEX
  8
0
  5
7D29
 10
-0.0766094
 20
-0.165966
 30
0.000000
  70
    32
  0
VERTEX
  8
0
  5
7D2A
 10
-0.0768269
 20
-0.165730
 30
0.000000
  70
    32
  0
VERTEX
  8
0
  5
7D2B
 10
-0.0770329
 20
-0.165494
 30
0.000000
  70
    32
  0
VERTEX
  8
0
  5
7D2C
 10
-0.0772272
 20
-0.165258
 30
0.000000
  70
    32
  0
VERTEX
  8
0
  5
7D2D
 10
-0.0774099
 20
-0.165020
 30
0.000000
  70
    32
  0
VERTEX
  8
0
  5
7D2E
 10
-0.0775809
 20
-0.164783
 30
0.000000
  70
    32
  0
VERTEX
  8
0
  5
7D2F
 10
-0.0777403
 20
-0.164544
 30
0.000000
  70
    32
  0
VERTEX
  8
0
  5
7D30
 10
-0.0778879
 20
-0.164306
 30
0.000000
  70
    32
  0
VERTEX
  8
0
  5
7D31
 10
-0.0780238
 20
-0.164067
 30
0.000000
  70
    32
  0
VERTEX
  8
0
  5
7D32
 10
-0.0781480
 20
-0.163827
 30
0.000000
  70
    32
  0
VERTEX
  8
0
  5
7D33
 10
-0.0782604
 20
-0.163587
 30
0.000000
  70
    32
  0
VERTEX
  8
0
  5
7D34
 10
-0.0783610
 20
-0.163347
 30
0.000000
  70
    32
  0
VERTEX
  8
0
  5
7D35
 10
-0.0784498
 20
-0.163106
 30
0.000000
  70
    32
  0
VERTEX
  8
0
  5
7D36
 10
-0.0785268
 20
-0.162865
 30
0.000000
  70
    32
  0
VERTEX
  8
0
  5
7D37
 10
-0.0785920
 20
-0.162624
 30
0.000000
  70
    32
  0
VERTEX
  8
0
  5
7D38
 10
-0.0786453
 20
-0.162383
 30
0.000000
  70
    32
  0
VERTEX
  8
0
  5
7D39
 10
-0.0786868
 20
-0.162142
 30
0.000000
  70
    32
  0
VERTEX
  8
0
  5
7D3A
 10
-0.0787164
 20
-0.161900
 30
0.000000
  70
    32
  0
VERTEX
  8
0
  5
7D3B
 10
-0.0787342
 20
-0.161659
 30
0.000000
  70
    32
  0
VERTEX
  8
0
  5
7D3C
 10
-0.0787402
 20
-0.161417
 30
0.000000
  70
    32
  0
SEQEND
  8
0
  5
7D3D
  0
LINE
  5
7709
  8
0
 10
0.1771653555000263
 20
-0.1811023634000008
 30
0.0
 11
0.1771653555000263
 21
-0.5354330744000038
 31
0.0
  0
LINE
  5
770A
  8
0
 10
-0.1771653554999765
 20
-0.1811023634000008
 30
0.0
 11
-0.1771653554999765
 21
-0.5354330744000038
 31
0.0
  0
LINE
  5
770B
  8
0
 10
-0.2263779542499726
 20
-0.5748031533999978
 30
0.0
 11
0.2263779542500224
 21
-0.5748031533999978
 31
0.0
  0
LINE
  5
770E
  8
0
 10
-0.1771653554999765
 20
-0.5354330744000038
 30
0.0
 11
0.1771653555000263
 21
-0.5354330744000038
 31
0.0
  0
LINE
  5
770F
  8
0
 10
-0.2263779542499726
 20
-0.5748031533999978
 30
0.0
 11
-0.1771653554999765
 21
-0.5354330744000038
 31
0.0
  0
LINE
  5
7710
  8
0
 10
0.1771653555000263
 20
-0.5354330744000038
 30
0.0
 11
0.2263779542500224
 21
-0.5748031533999978
 31
0.0
  0
ENDSEC
  0
EOF
