  0
SECTION
  2
HEADER
  9
$ACADVER
  1
AC1009
  9
$INSBASE
 10
-3.7220439885024912
 20
-4.53803984751596
 30
0.0
  9
$EXTMIN
 10
-1.0060723077110649
 20
-2.3629767575630458
 30
-0.0015258207003583
  9
$EXTMAX
 10
0.9879459035443005
 20
0.0132739363789938
 30
0.0000000349246037
  9
$LIMMIN
 10
0.0
 20
0.0
  9
$LIMMAX
 10
297.0
 20
210.0
  9
$ORTHOMODE
 70
     1
  9
$REGENMODE
 70
     1
  9
$FILLMODE
 70
     1
  9
$QTEXTMODE
 70
     0
  9
$MIRRTEXT
 70
     1
  9
$DRAGMODE
 70
     2
  9
$LTSCALE
 40
0.1
  9
$OSMODE
 70
     8
  9
$ATTMODE
 70
     1
  9
$TEXTSIZE
 40
0.156
  9
$TRACEWID
 40
1.0
  9
$TEXTSTYLE
  7
ROMANS
  9
$CLAYER
  8
0
  9
$CELTYPE
  6
BYLAYER
  9
$CECOLOR
 62
   256
  9
$DIMSCALE
 40
0.75
  9
$DIMASZ
 40
0.1
  9
$DIMEXO
 40
0.05
  9
$DIMDLI
 40
0.5
  9
$DIMRND
 40
0.0
  9
$DIMDLE
 40
0.0
  9
$DIMEXE
 40
0.1
  9
$DIMTP
 40
0.1
  9
$DIMTM
 40
0.1
  9
$DIMTXT
 40
0.12
  9
$DIMCEN
 40
0.0
  9
$DIMTSZ
 40
0.0
  9
$DIMTOL
 70
     0
  9
$DIMLIM
 70
     0
  9
$DIMTIH
 70
     1
  9
$DIMTOH
 70
     1
  9
$DIMSE1
 70
     0
  9
$DIMSE2
 70
     0
  9
$DIMTAD
 70
     0
  9
$DIMZIN
 70
     7
  9
$DIMBLK
  1

  9
$DIMASO
 70
     1
  9
$DIMSHO
 70
     1
  9
$DIMPOST
  1

  9
$DIMAPOST
  1
mm
  9
$DIMALT
 70
     0
  9
$DIMALTD
 70
     2
  9
$DIMALTF
 40
25.399999999999999
  9
$DIMLFAC
 40
1.0
  9
$DIMTOFL
 70
     0
  9
$DIMTVP
 40
0.0
  9
$DIMTIX
 70
     0
  9
$DIMSOXD
 70
     0
  9
$DIMSAH
 70
     0
  9
$DIMBLK1
  1

  9
$DIMBLK2
  1

  9
$DIMSTYLE
  2
AM_ANSI
  9
$DIMCLRD
 70
   256
  9
$DIMCLRE
 70
   256
  9
$DIMCLRT
 70
   256
  9
$DIMTFAC
 40
0.71
  9
$DIMGAP
 40
0.06
  9
$LUNITS
 70
     2
  9
$LUPREC
 70
     4
  9
$SKETCHINC
 40
1.0
  9
$FILLETRAD
 40
0.2
  9
$AUNITS
 70
     0
  9
$AUPREC
 70
     0
  9
$MENU
  1
.
  9
$ELEVATION
 40
0.0
  9
$PELEVATION
 40
0.0
  9
$THICKNESS
 40
0.0
  9
$LIMCHECK
 70
     0
  9
$BLIPMODE
 70
     0
  9
$CHAMFERA
 40
0.5
  9
$CHAMFERB
 40
0.5
  9
$SKPOLY
 70
     0
  9
$TDCREATE
 40
2451673.763809259
  9
$TDUPDATE
 40
2453313.6136523369
  9
$TDINDWG
 40
0.8805823495
  9
$TDUSRTIMER
 40
0.8805823495
  9
$USRTIMER
 70
     1
  9
$ANGBASE
 50
0.0
  9
$ANGDIR
 70
     0
  9
$PDMODE
 70
    34
  9
$PDSIZE
 40
0.0
  9
$PLINEWID
 40
0.0
  9
$COORDS
 70
     0
  9
$SPLFRAME
 70
     0
  9
$SPLINETYPE
 70
     6
  9
$SPLINESEGS
 70
     8
  9
$ATTDIA
 70
     0
  9
$ATTREQ
 70
     1
  9
$HANDLING
 70
 12289
  9
$HANDSEED
  5
3F9D
  9
$SURFTAB1
 70
     6
  9
$SURFTAB2
 70
     6
  9
$SURFTYPE
 70
     6
  9
$SURFU
 70
     6
  9
$SURFV
 70
     6
  9
$UCSNAME
  2

  9
$UCSORG
 10
0.0
 20
0.0
 30
0.0
  9
$UCSXDIR
 10
1.0
 20
0.0
 30
0.0
  9
$UCSYDIR
 10
0.0
 20
1.0
 30
0.0
  9
$PUCSNAME
  2

  9
$PUCSORG
 10
0.0
 20
0.0
 30
0.0
  9
$PUCSXDIR
 10
1.0
 20
0.0
 30
0.0
  9
$PUCSYDIR
 10
0.0
 20
1.0
 30
0.0
  9
$USERI1
 70
     0
  9
$USERI2
 70
     0
  9
$USERI3
 70
     0
  9
$USERI4
 70
     0
  9
$USERI5
 70
     0
  9
$USERR1
 40
0.0
  9
$USERR2
 40
0.0
  9
$USERR3
 40
0.0
  9
$USERR4
 40
0.0
  9
$USERR5
 40
0.0
  9
$WORLDVIEW
 70
     1
  9
$SHADEDGE
 70
     3
  9
$SHADEDIF
 70
    70
  9
$TILEMODE
 70
     1
  9
$MAXACTVP
 70
    48
  9
$PLIMCHECK
 70
     0
  9
$PEXTMIN
 10
1.0000000000000000E+020
 20
1.0000000000000000E+020
 30
1.0000000000000000E+020
  9
$PEXTMAX
 10
-1.0000000000000000E+020
 20
-1.0000000000000000E+020
 30
-1.0000000000000000E+020
  9
$PLIMMIN
 10
0.0
 20
0.0
  9
$PLIMMAX
 10
420.0
 20
297.0
  9
$UNITMODE
 70
     0
  9
$VISRETAIN
 70
     1
  9
$PLINEGEN
 70
     0
  9
$PSLTSCALE
 70
     1
  0
ENDSEC
  0
SECTION
  2
TABLES
  0
TABLE
  2
VPORT
 70
     7
  0
VPORT
  2
*ACTIVE
 70
     0
 10
0.0
 20
0.0
 11
1.0
 21
1.0
 12
28.983273595097149
 22
98.295241836171414
 13
0.0
 23
0.0
 14
10.0
 24
10.0
 15
10.0
 25
10.0
 16
0.0
 26
0.0
 36
1.0
 17
-28.992336797180538
 27
-99.47009324676344
 37
0.0
 40
4.8010789148470963
 41
1.8430034129692829
 42
50.0
 43
0.0
 44
0.0
 50
0.0
 51
0.0
 71
     0
 72
 20000
 73
     1
 74
     0
 75
     0
 76
     0
 77
     0
 78
     1
  0
ENDTAB
  0
TABLE
  2
LTYPE
 70
    13
  0
LTYPE
  2
CONTINUOUS
 70
     0
  3
Solid line
 72
    65
 73
     0
 40
0.0
  0
LTYPE
  2
CENTER
 70
     0
  3
____ _ ____ _ ____ _ ____ _ ____ _ ____ _ ____ 
 72
    65
 73
     4
 40
2.0
 49
1.25
 49
-0.25
 49
0.25
 49
-0.25
  0
LTYPE
  2
PHANTOM
 70
     0
  3
Phantom ______  __  __  ______  __  __  ______
 72
    65
 73
     6
 40
63.5
 49
31.75
 49
-6.3499999999999979
 49
6.3499999999999979
 49
-6.3499999999999979
 49
6.3499999999999979
 49
-6.3499999999999979
  0
LTYPE
  2
HIDDEN
 70
     0
  3
__ __ __ __ __ __ __ __ __ __ __ __ __ __ __ __
 72
    65
 73
     2
 40
0.375
 49
0.25
 49
-0.125
  0
LTYPE
  2
PHANTOM2
 70
     0
  3
___ _ _ ___ _ _ ___ _ _ ___ _ _ ___ _ _ ___ _ _
 72
    65
 73
     6
 40
1.25
 49
0.625
 49
-0.125
 49
0.125
 49
-0.125
 49
0.125
 49
-0.125
  0
LTYPE
  2
AMCONSTR
 70
     0
  3
_______________________
 72
    65
 73
     2
 40
9999.0
 49
9999.0
 49
0.0
  0
LTYPE
  2
HIDDEN2
 70
     0
  3
_ _ _ _ _ _ _ _ _ _ _ _ _ _ _ _ _ _ _ _ _ _ _ _
 72
    65
 73
     2
 40
0.1875
 49
0.125
 49
-0.0625
  0
LTYPE
  2
CENTER2
 70
     0
  3
___ _ ___ _ ___ _ ___ _ ___ _ ___ _ ___ _ ___ _
 72
    65
 73
     4
 40
1.125
 49
0.75
 49
-0.125
 49
0.125
 49
-0.125
  0
LTYPE
  2
AMZIGZAG2
 70
     0
  3
/\/-/\/-/\/-/\/-/\/-/\/
 72
    65
 73
     2
 40
0.4401
 49
0.0001
 49
-0.4400000000000002
  0
LTYPE
  2
ASULTYPE
 70
     0
  3
Solid line
 72
    65
 73
     2
 40
3.0
 49
2.5
 49
0.5
  0
LTYPE
  2
ASVLTYPE
 70
     0
  3
__ __ __ __ __ __ __ __ __ __ __ __ __ __ __ __ __ __ __ __ __
 72
    65
 73
     2
 40
0.75
 49
0.5
 49
-0.25
  0
LTYPE
  2
ACANSTGB
 70
     0
  3
__ . . __ . .
 72
    65
 73
     6
 40
0.35433070866
 49
0.15748031496
 49
-0.03937007874
 49
0.03937007874
 49
-0.03937007874
 49
0.03937007874
 49
-0.03937007874
  0
LTYPE
  2
ACANSTGL
 70
     0
  3
_ _ _ _ _
 72
    65
 73
     2
 40
0.11811023622
 49
0.07874015748
 49
-0.03937007874
  0
ENDTAB
  0
TABLE
  2
LAYER
 70
     4
  0
LAYER
  2
0
 70
     0
 62
     7
  6
CONTINUOUS
  0
LAYER
  2
DEFPOINTS
 70
     0
 62
     7
  6
CONTINUOUS
  0
ENDTAB
  0
TABLE
  2
STYLE
 70
     6
  0
STYLE
  2
STANDARD
 70
     0
 40
0.0
 41
1.0
 50
0.0
 71
     0
 42
2.5
  3
txt
  4

  0
STYLE
  2
ROMANS
 70
     0
 40
0.0
 41
1.0
 50
0.0
 71
     0
 42
0.156
  3
romans.shx
  4

  0
STYLE
  2
GHS
 70
     0
 40
0.0
 41
0.8
 50
0.0
 71
     0
 42
0.2
  3
romans.shx
  4
ghs.shx
  0
STYLE
  2

 70
     1
 40
0.0
 41
1.0
 50
0.0
 71
     0
 42
0.156
  3
ltypeshp.shx
  4

  0
STYLE
  2
ACANSTS
 70
     0
 40
1.0
 41
1.0
 50
0.0
 71
     0
 42
0.156
  3
romans.shx
  4

  0
STYLE
  2
ACANSGDT
 70
     0
 40
0.0
 41
1.0
 50
0.0
 71
     0
 42
0.156
  3
amgdtans.shx
  4

  0
ENDTAB
  0
TABLE
  2
VIEW
 70
     0
  0
ENDTAB
  0
TABLE
  2
UCS
 70
     0
  0
ENDTAB
  0
TABLE
  2
APPID
 70
    16
  0
APPID
  2
ACAD
 70
     0
  0
APPID
  2
AD_DRAW
 70
     0
  0
APPID
  2
DESIGNERASSEMBLIES
 70
     0
  0
APPID
  2
MCAD_NO_VIS
 70
     0
  0
APPID
  2
ASURF_PCURVE_APPNAME
 70
     0
  0
APPID
  2
GENIUS_GENDIM_13
 70
     0
  0
APPID
  2
GENIUS_GENDTOL_13
 70
     0
  0
APPID
  2
GENIUS_GE3DTOL_13
 70
     0
  0
APPID
  2
ACAD_TEMP_GRAPHIC
 70
     0
  0
APPID
  2
ACATTRIBSERVICES
 70
     0
  0
APPID
  2
ACADM_DIM_EDIT
 70
     0
  0
APPID
  2
AD_SKETCHDIM
 70
     0
  0
APPID
  2
GENIUS_GENDIMSH_14
 70
     0
  0
APPID
  2
AMG_3D2D_5_0
 70
     0
  0
APPID
  2
AMDT_DM_ADJ
 70
     0
  0
APPID
  2
DCO15
 70
     0
  0
ENDTAB
  0
TABLE
  2
DIMSTYLE
 70
     8
  0
DIMSTYLE
  2
STANDARD
 70
     0
  3

  4

  5

  6

  7

 40
1.0
 41
0.18
 42
0.0625
 43
0.38
 44
0.18
 45
0.0
 46
0.0
 47
0.0
 48
0.0
140
0.18
141
0.09
142
0.0
143
25.399999999999999
144
1.0
145
0.0
146
1.0
147
0.09
 71
     0
 72
     0
 73
     1
 74
     1
 75
     0
 76
     0
 77
     0
 78
     0
170
     0
171
     2
172
     0
173
     0
174
     0
175
     0
176
     0
177
     0
178
     0
  0
DIMSTYLE
  2
AM_ANSI
 70
     0
  3

  4
mm
  5

  6

  7

 40
0.75
 41
0.1
 42
0.05
 43
0.5
 44
0.1
 45
0.0
 46
0.0
 47
0.1
 48
0.1
140
0.12
141
0.0
142
0.0
143
25.399999999999999
144
1.0
145
0.0
146
0.71
147
0.06
 71
     0
 72
     0
 73
     1
 74
     1
 75
     0
 76
     0
 77
     0
 78
     7
170
     0
171
     2
172
     0
173
     0
174
     0
175
     0
176
   256
177
   256
178
   256
  0
DIMSTYLE
  2
AM_ANSI$3
 70
     0
  3

  4
mm
  5

  6

  7

 40
0.75
 41
0.1
 42
0.05
 43
0.5
 44
0.1
 45
0.0
 46
0.0
 47
0.1
 48
0.1
140
0.12
141
0.0
142
0.0
143
25.399999999999999
144
1.0
145
0.0
146
0.71
147
0.06
 71
     0
 72
     0
 73
     1
 74
     1
 75
     0
 76
     0
 77
     0
 78
     7
170
     0
171
     2
172
     0
173
     0
174
     0
175
     0
176
   256
177
   256
178
   256
  0
DIMSTYLE
  2
AM_ANSI$4
 70
     0
  3

  4
mm
  5

  6

  7

 40
0.75
 41
0.1
 42
0.05
 43
0.5
 44
0.1
 45
0.0
 46
0.0
 47
0.1
 48
0.1
140
0.12
141
0.0
142
0.0
143
25.399999999999999
144
1.0
145
0.0
146
0.71
147
0.06
 71
     0
 72
     0
 73
     1
 74
     1
 75
     0
 76
     0
 77
     0
 78
     7
170
     0
171
     2
172
     0
173
     0
174
     0
175
     0
176
   256
177
   256
178
   256
  0
DIMSTYLE
  2
AM_ANSI$6
 70
     0
  3

  4
mm
  5

  6

  7

 40
0.75
 41
0.1
 42
0.05
 43
0.5
 44
0.1
 45
0.0
 46
0.0
 47
0.1
 48
0.1
140
0.12
141
0.0
142
0.0
143
25.399999999999999
144
1.0
145
0.0
146
0.71
147
0.06
 71
     0
 72
     0
 73
     1
 74
     1
 75
     0
 76
     0
 77
     0
 78
     7
170
     0
171
     2
172
     0
173
     0
174
     0
175
     0
176
   256
177
   256
178
   256
  0
DIMSTYLE
  2
AM_ANSI$7
 70
     0
  3

  4
mm
  5

  6

  7

 40
0.75
 41
0.1
 42
0.05
 43
0.5
 44
0.1
 45
0.0
 46
0.0
 47
0.1
 48
0.1
140
0.12
141
0.0
142
0.0
143
25.399999999999999
144
1.0
145
0.0
146
0.71
147
0.06
 71
     0
 72
     0
 73
     1
 74
     1
 75
     0
 76
     0
 77
     0
 78
     7
170
     0
171
     2
172
     0
173
     0
174
     0
175
     0
176
   256
177
   256
178
   256
  0
DIMSTYLE
  2
AM_ANSI$SF
 70
     0
  3

  4
mm
  5

  6

  7

 40
1.0
 41
0.1
 42
0.05
 43
0.5
 44
0.1
 45
0.0
 46
0.0
 47
0.1
 48
0.1
140
0.12
141
0.0
142
0.0
143
25.399999999999999
144
1.0
145
0.0
146
0.71
147
0.06
 71
     0
 72
     0
 73
     1
 74
     1
 75
     1
 76
     1
 77
     0
 78
     7
170
     0
171
     2
172
     0
173
     0
174
     0
175
     0
176
   256
177
   256
178
     2
  0
DIMSTYLE
  2
AM_ANSI$SH
 70
     0
  3

  4
mm
  5

  6
GENAXEH
  7

 40
1.0
 41
0.1
 42
0.05
 43
0.5
 44
0.1
 45
0.0
 46
0.0
 47
0.1
 48
0.1
140
0.12
141
0.0
142
0.0
143
25.399999999999999
144
1.0
145
0.0
146
0.71
147
0.06
 71
     0
 72
     0
 73
     1
 74
     1
 75
     1
 76
     1
 77
     0
 78
     7
170
     0
171
     2
172
     0
173
     1
174
     0
175
     0
176
   256
177
   256
178
     2
  0
ENDTAB
  0
ENDSEC
  0
SECTION
  2
BLOCKS
  0
BLOCK
  8
0
  2
$MODEL_SPACE
 70
     0
 10
0.0
 20
0.0
 30
0.0
  3
$MODEL_SPACE
  1

  0
ENDBLK
  5
6
  8
0
  0
BLOCK
 67
     1
  8
0
  2
$PAPER_SPACE
 70
     0
 10
0.0
 20
0.0
 30
0.0
  3
$PAPER_SPACE
  1

  0
ENDBLK
  5
9
 67
     1
  8
0
  0
BLOCK
  8
0
  2
GENAXEH
 70
     0
 10
0.0
 20
0.0
 30
0.0
  3
GENAXEH
  1

  0
LINE
  5
3E2D
  8
0
 10
-1.0
 20
0.0
 30
0.0
 11
1.0
 21
0.0
 31
0.0
  0
ENDBLK
  5
3E2E
  8
0
  0
BLOCK
  8
0
  2
*U4
 70
     1
 10
0.0
 20
0.0
 30
0.0
  3
*U4
  1

  0
TEXT
  5
3F99
  8
0
 10
0.902823403571435
 20
-0.4159207468116347
 30
0.0
 40
0.09
  1
\U+2205
  7
ROMANS
  0
TEXT
  5
3F9A
  8
0
 10
0.9842519750000063
 20
-0.4159207468116347
 30
0.0
 40
0.09
  1
D
  7
ROMANS
  0
ENDBLK
  5
3F9C
  8
0
  0
ENDSEC
  0
SECTION
  2
ENTITIES
  0
LINE
  5
2908
  8
0
 10
0.984251974999992
 20
-0.8070866195000119
 30
0.0
 11
0.984251974999992
 21
-0.9055118170000182
 31
0.0
  0
LINE
  5
2909
  8
0
 10
-0.9842519750000203
 20
-0.8070866195000119
 30
0.0
 11
-0.9842519750000203
 21
-0.9055118170000182
 31
0.0
  0
LINE
  5
290A
  8
0
 10
-0.9842519750000203
 20
-2.362204740000009
 30
0.0
 11
0.984251974999992
 21
-2.362204740000009
 31
0.0
  0
LINE
  5
290B
  8
0
 10
-0.5511811060000152
 20
-0.3543307110000171
 30
0.0
 11
0.5511811059999867
 21
-0.3543307110000171
 31
0.0
  0
LINE
  5
291C
  8
0
 10
-0.6299212640000031
 20
-0.6850393745999951
 30
0.0
 11
0.6299212639999748
 21
-0.6850393745999951
 31
0.0
  0
LINE
  5
291D
  8
0
 10
0.5511811059999867
 20
-0.078740158000016
 30
0.0
 11
0.5511811059999867
 21
-0.6850393745999951
 31
0.0
  0
LINE
  5
291E
  8
0
 10
-0.5511811060000152
 20
-0.078740158000016
 30
0.0
 11
-0.5511811060000152
 21
-0.6850393745999951
 31
0.0
  0
LINE
  5
291F
  8
0
 10
-0.9842519750000203
 20
-0.8070866195000119
 30
0.0
 11
0.984251974999992
 21
-0.8070866195000119
 31
0.0
  0
LINE
  5
2924
  8
0
 10
-0.6299212640000031
 20
-0.6850393745999951
 30
0.0
 11
-0.8858267775000138
 21
-0.8070866195000119
 31
0.0
  0
LINE
  5
2925
  8
0
 10
0.6299212639999748
 20
-0.6850393745999951
 30
0.0
 11
0.8858267774999857
 21
-0.8070866195000119
 31
0.0
  0
LINE
  5
2926
  8
0
 10
-0.9842519750000203
 20
-0.9055118170000182
 30
0.0
 11
0.984251974999992
 21
-0.9055118170000182
 31
0.0
  0
LINE
  5
2927
  8
0
 10
-0.9842519750000203
 20
-1.1811023700000181
 30
0.0
 11
0.984251974999992
 21
-1.1811023700000181
 31
0.0
  0
LINE
  5
2928
  8
0
 10
-0.9842519750000203
 20
-1.2795275674999971
 30
0.0
 11
0.984251974999992
 21
-1.2795275674999971
 31
0.0
  0
LINE
  5
2929
  8
0
 10
-0.9842519750000203
 20
-1.555118120499996
 30
0.0
 11
0.984251974999992
 21
-1.555118120499996
 31
0.0
  0
LINE
  5
292A
  8
0
 10
-0.9842519750000203
 20
-1.653543318000003
 30
0.0
 11
0.984251974999992
 21
-1.653543318000003
 31
0.0
  0
LINE
  5
292B
  8
0
 10
-0.9842519750000203
 20
-1.929133871000003
 30
0.0
 11
0.984251974999992
 21
-1.929133871000003
 31
0.0
  0
LINE
  5
292C
  8
0
 10
-0.9842519750000203
 20
-2.0275590685000102
 30
0.0
 11
0.984251974999992
 21
-2.0275590685000102
 31
0.0
  0
LINE
  5
292D
  8
0
 10
-0.7086614220000196
 20
-1.0433070935000031
 30
0.0
 11
0.7086614219999918
 21
-1.0433070935000031
 31
0.0
  0
LINE
  5
292E
  8
0
 10
-0.7086614220000196
 20
-1.4173228440000101
 30
0.0
 11
0.7086614219999918
 21
-1.4173228440000101
 31
0.0
  0
LINE
  5
292F
  8
0
 10
-0.7086614220000196
 20
-1.7913385945000171
 30
0.0
 11
0.7086614219999918
 21
-1.7913385945000171
 31
0.0
  0
LINE
  5
2930
  8
0
 10
-0.7086614220000196
 20
-2.1653543449999959
 30
0.0
 11
0.7086614219999918
 21
-2.1653543449999959
 31
0.0
  0
LINE
  5
2933
  8
0
 10
-0.9251968565000222
 20
-0.9055118170000182
 30
0.0
 11
-0.7086614220000196
 21
-1.0433070935000031
 31
0.0
  0
LINE
  5
2934
  8
0
 10
-0.7086614220000196
 20
-1.0433070935000031
 30
0.0
 11
-0.9251968565000222
 21
-1.1811023700000181
 31
0.0
  0
LINE
  5
2935
  8
0
 10
-0.9251968565000222
 20
-1.2795275674999971
 30
0.0
 11
-0.7086614220000196
 21
-1.4173228440000101
 31
0.0
  0
LINE
  5
2936
  8
0
 10
-0.7086614220000196
 20
-1.4173228440000101
 30
0.0
 11
-0.9251968565000222
 21
-1.555118120499996
 31
0.0
  0
LINE
  5
2937
  8
0
 10
-0.9251968565000222
 20
-1.653543318000003
 30
0.0
 11
-0.7086614220000196
 21
-1.7913385945000171
 31
0.0
  0
LINE
  5
2938
  8
0
 10
-0.7086614220000196
 20
-1.7913385945000171
 30
0.0
 11
-0.9251968565000222
 21
-1.929133871000003
 31
0.0
  0
LINE
  5
2939
  8
0
 10
-0.9251968565000222
 20
-2.0275590685000102
 30
0.0
 11
-0.7086614220000196
 21
-2.1653543449999959
 31
0.0
  0
LINE
  5
293A
  8
0
 10
-0.7086614220000196
 20
-2.1653543449999959
 30
0.0
 11
-0.9842519750000203
 21
-2.362204740000009
 31
0.0
  0
LINE
  5
293B
  8
0
 10
0.9251968564999938
 20
-0.9055118170000182
 30
0.0
 11
0.7086614219999918
 21
-1.0433070935000031
 31
0.0
  0
LINE
  5
293C
  8
0
 10
0.7086614219999918
 20
-1.0433070935000031
 30
0.0
 11
0.9251968564999938
 21
-1.1811023700000181
 31
0.0
  0
LINE
  5
293D
  8
0
 10
0.9251968564999938
 20
-1.2795275674999971
 30
0.0
 11
0.7086614219999918
 21
-1.4173228440000101
 31
0.0
  0
LINE
  5
293E
  8
0
 10
0.7086614219999918
 20
-1.4173228440000101
 30
0.0
 11
0.9251968564999938
 21
-1.555118120499996
 31
0.0
  0
LINE
  5
293F
  8
0
 10
0.9251968564999938
 20
-1.653543318000003
 30
0.0
 11
0.7086614219999918
 21
-1.7913385945000171
 31
0.0
  0
LINE
  5
2940
  8
0
 10
0.7086614219999918
 20
-1.7913385945000171
 30
0.0
 11
0.9251968564999938
 21
-1.929133871000003
 31
0.0
  0
LINE
  5
2941
  8
0
 10
0.9251968564999938
 20
-2.0275590685000102
 30
0.0
 11
0.7086614219999918
 21
-2.1653543449999959
 31
0.0
  0
LINE
  5
2942
  8
0
 10
0.7086614219999918
 20
-2.1653543449999959
 30
0.0
 11
0.984251974999992
 21
-2.362204740000009
 31
0.0
  0
LINE
  5
2943
  8
0
 10
0.984251974999992
 20
-1.1811023700000181
 30
0.0
 11
0.984251974999992
 21
-1.2795275674999971
 31
0.0
  0
LINE
  5
2944
  8
0
 10
0.984251974999992
 20
-1.555118120499996
 30
0.0
 11
0.984251974999992
 21
-1.653543318000003
 31
0.0
  0
LINE
  5
2945
  8
0
 10
0.984251974999992
 20
-1.929133871000003
 30
0.0
 11
0.984251974999992
 21
-2.0275590685000102
 31
0.0
  0
LINE
  5
2946
  8
0
 10
-0.9842519750000203
 20
-1.929133871000003
 30
0.0
 11
-0.9842519750000203
 21
-2.0275590685000102
 31
0.0
  0
LINE
  5
2947
  8
0
 10
-0.9842519750000203
 20
-1.555118120499996
 30
0.0
 11
-0.9842519750000203
 21
-1.653543318000003
 31
0.0
  0
LINE
  5
2948
  8
0
 10
-0.9842519750000203
 20
-1.1811023700000181
 30
0.0
 11
-0.9842519750000203
 21
-1.2795275674999971
 31
0.0
  0
LINE
  5
2949
  8
0
 10
-0.5511811060000152
 20
-0.523622050699998
 30
0.0
 11
0.5511811059999867
 21
-0.523622050699998
 31
0.0
  0
LINE
  5
294A
  8
0
 10
-0.4724409479999987
 20
0.0
 30
0.0
 11
0.4724409479999987
 21
0.0
 31
0.0
  0
LINE
  5
294B
  8
0
 10
-0.5511811060000152
 20
-0.078740158000016
 30
0.0
 11
0.5511811059999867
 21
-0.078740158000016
 31
0.0
  0
LINE
  5
294E
  8
0
 10
-0.4724409479999987
 20
0.0
 30
0.0
 11
-0.5511811060000152
 21
-0.078740158000016
 31
0.0
  0
LINE
  5
294F
  8
0
 10
0.4724409479999987
 20
0.0
 30
0.0
 11
0.5511811059999867
 21
-0.078740158000016
 31
0.0
  0
LINE
  5
2950
  8
0
 10
-0.2952755925000042
 20
-0.23622047400002
 30
0.0
 11
0.2952755924999768
 21
-0.23622047400002
 31
0.0
  0
LINE
  5
2951
  8
0
 10
0.2952755924999768
 20
-0.078740158000016
 30
0.0
 11
0.2952755924999768
 21
-0.23622047400002
 31
0.0
  0
LINE
  5
2952
  8
0
 10
-0.2952755925000042
 20
-0.078740158000016
 30
0.0
 11
-0.2952755925000042
 21
-0.23622047400002
 31
0.0
  0
ENDSEC
  0
EOF
